  0
SECTION
  2
HEADER
  9
$ACADVER
  1
AC1015
  9
$ACADMAINTVER
 70
     6
  9
$DWGCODEPAGE
  3
ANSI_1254
  9
$INSBASE
 10
0.0
 20
0.0
 30
0.0
  9
$EXTMIN
 10
0.0
 20
0.0
 30
0.0
  9
$EXTMAX
 10
279.4
 20
215.9
 30
0.0
  9
$LIMMIN
 10
0.0
 20
0.0
  9
$LIMMAX
 10
279.4
 20
215.9
  9
$ORTHOMODE
 70
     0
  9
$REGENMODE
 70
     1
  9
$FILLMODE
 70
     1
  9
$QTEXTMODE
 70
     0
  9
$MIRRTEXT
 70
     1
  9
$LTSCALE
 40
1.0
  9
$ATTMODE
 70
     1
  9
$TEXTSIZE
 40
3.5
  9
$TRACEWID
 40
1.0
  9
$TEXTSTYLE
  7
Standard
  9
$CLAYER
  8
0
  9
$CELTYPE
  6
ByLayer
  9
$CECOLOR
 62
   256
  9
$CELTSCALE
 40
1.0
  9
$DISPSILH
 70
     0
  9
$DIMSCALE
 40
1.0
  9
$DIMASZ
 40
3.5
  9
$DIMEXO
 40
1.0
  9
$DIMDLI
 40
3.75
  9
$DIMRND
 40
0.0
  9
$DIMDLE
 40
0.0
  9
$DIMEXE
 40
1.0
  9
$DIMTP
 40
0.0
  9
$DIMTM
 40
0.0
  9
$DIMTXT
 40
3.5
  9
$DIMCEN
 40
2.5
  9
$DIMTSZ
 40
0.0
  9
$DIMTOL
 70
     0
  9
$DIMLIM
 70
     0
  9
$DIMTIH
 70
     1
  9
$DIMTOH
 70
     1
  9
$DIMSE1
 70
     0
  9
$DIMSE2
 70
     0
  9
$DIMTAD
 70
     1
  9
$DIMZIN
 70
     0
  9
$DIMBLK
  1

  9
$DIMASO
 70
     1
  9
$DIMSHO
 70
     1
  9
$DIMPOST
  1

  9
$DIMAPOST
  1

  9
$DIMALT
 70
     0
  9
$DIMALTD
 70
     3
  9
$DIMALTF
 40
0.0393700787
  9
$DIMLFAC
 40
1.0
  9
$DIMTOFL
 70
     1
  9
$DIMTVP
 40
0.0
  9
$DIMTIX
 70
     0
  9
$DIMSOXD
 70
     0
  9
$DIMSAH
 70
     0
  9
$DIMBLK1
  1

  9
$DIMBLK2
  1

  9
$DIMSTYLE
  2
ISO-25
  9
$DIMCLRD
 70
     0
  9
$DIMCLRE
 70
     0
  9
$DIMCLRT
 70
     0
  9
$DIMTFAC
 40
1.0
  9
$DIMGAP
 40
1.524
  9
$DIMJUST
 70
     0
  9
$DIMSD1
 70
     0
  9
$DIMSD2
 70
     0
  9
$DIMTOLJ
 70
     0
  9
$DIMTZIN
 70
     0
  9
$DIMALTZ
 70
     0
  9
$DIMALTTZ
 70
     0
  9
$DIMUPT
 70
     0
  9
$DIMDEC
 70
     2
  9
$DIMTDEC
 70
     2
  9
$DIMALTU
 70
     2
  9
$DIMALTTD
 70
     3
  9
$DIMTXSTY
  7
Standard
  9
$DIMAUNIT
 70
     0
  9
$DIMADEC
 70
     2
  9
$DIMALTRND
 40
0.0
  9
$DIMAZIN
 70
     0
  9
$DIMDSEP
 70
    44
  9
$DIMATFIT
 70
     3
  9
$DIMFRAC
 70
     0
  9
$DIMLDRBLK
  1

  9
$DIMLUNIT
 70
     2
  9
$DIMLWD
 70
    -2
  9
$DIMLWE
 70
    -2
  9
$DIMTMOVE
 70
     0
  9
$LUNITS
 70
     2
  9
$LUPREC
 70
     2
  9
$SKETCHINC
 40
1.0
  9
$FILLETRAD
 40
10.0
  9
$AUNITS
 70
     0
  9
$AUPREC
 70
     2
  9
$MENU
  1
.
  9
$ELEVATION
 40
0.0
  9
$PELEVATION
 40
0.0
  9
$THICKNESS
 40
0.0
  9
$LIMCHECK
 70
     0
  9
$CHAMFERA
 40
0.0
  9
$CHAMFERB
 40
0.0
  9
$CHAMFERC
 40
0.0
  9
$CHAMFERD
 40
0.0
  9
$SKPOLY
 70
     0
  9
$TDCREATE
 40
2460396.36966522
  9
$TDUCREATE
 40
2460396.24466522
  9
$TDUPDATE
 40
2460396.369665405
  9
$TDUUPDATE
 40
2460396.244665405
  9
$TDINDWG
 40
0.0000000116
  9
$TDUSRTIMER
 40
0.0000000116
  9
$USRTIMER
 70
     1
  9
$ANGBASE
 50
0.0
  9
$ANGDIR
 70
     0
  9
$PDMODE
 70
     0
  9
$PDSIZE
 40
-1.0
  9
$PLINEWID
 40
0.0
  9
$SPLFRAME
 70
     0
  9
$SPLINETYPE
 70
     6
  9
$SPLINESEGS
 70
     8
  9
$HANDSEED
  5
133
  9
$SURFTAB1
 70
     6
  9
$SURFTAB2
 70
     6
  9
$SURFTYPE
 70
     6
  9
$SURFU
 70
     6
  9
$SURFV
 70
     6
  9
$UCSBASE
  2

  9
$UCSNAME
  2

  9
$UCSORG
 10
0.0
 20
0.0
 30
0.0
  9
$UCSXDIR
 10
1.0
 20
0.0
 30
0.0
  9
$UCSYDIR
 10
0.0
 20
1.0
 30
0.0
  9
$UCSORTHOREF
  2

  9
$UCSORTHOVIEW
 70
     0
  9
$UCSORGTOP
 10
0.0
 20
0.0
 30
0.0
  9
$UCSORGBOTTOM
 10
0.0
 20
0.0
 30
0.0
  9
$UCSORGLEFT
 10
0.0
 20
0.0
 30
0.0
  9
$UCSORGRIGHT
 10
0.0
 20
0.0
 30
0.0
  9
$UCSORGFRONT
 10
0.0
 20
0.0
 30
0.0
  9
$UCSORGBACK
 10
0.0
 20
0.0
 30
0.0
  9
$PUCSBASE
  2

  9
$PUCSNAME
  2

  9
$PUCSORG
 10
0.0
 20
0.0
 30
0.0
  9
$PUCSXDIR
 10
1.0
 20
0.0
 30
0.0
  9
$PUCSYDIR
 10
0.0
 20
1.0
 30
0.0
  9
$PUCSORTHOREF
  2

  9
$PUCSORTHOVIEW
 70
     0
  9
$PUCSORGTOP
 10
0.0
 20
0.0
 30
0.0
  9
$PUCSORGBOTTOM
 10
0.0
 20
0.0
 30
0.0
  9
$PUCSORGLEFT
 10
0.0
 20
0.0
 30
0.0
  9
$PUCSORGRIGHT
 10
0.0
 20
0.0
 30
0.0
  9
$PUCSORGFRONT
 10
0.0
 20
0.0
 30
0.0
  9
$PUCSORGBACK
 10
0.0
 20
0.0
 30
0.0
  9
$USERI1
 70
     0
  9
$USERI2
 70
     0
  9
$USERI3
 70
     0
  9
$USERI4
 70
     0
  9
$USERI5
 70
     0
  9
$USERR1
 40
0.0
  9
$USERR2
 40
0.0
  9
$USERR3
 40
0.0
  9
$USERR4
 40
0.0
  9
$USERR5
 40
0.0
  9
$WORLDVIEW
 70
     1
  9
$SHADEDGE
 70
     3
  9
$SHADEDIF
 70
    70
  9
$TILEMODE
 70
     1
  9
$MAXACTVP
 70
    64
  9
$PINSBASE
 10
0.0
 20
0.0
 30
0.0
  9
$PLIMCHECK
 70
     0
  9
$PEXTMIN
 10
1.0000000000E+20
 20
1.0000000000E+20
 30
1.0000000000E+20
  9
$PEXTMAX
 10
-1.0000000000E+20
 20
-1.0000000000E+20
 30
-1.0000000000E+20
  9
$PLIMMIN
 10
0.0
 20
0.0
  9
$PLIMMAX
 10
420.0
 20
297.0
  9
$UNITMODE
 70
     0
  9
$VISRETAIN
 70
     1
  9
$PLINEGEN
 70
     0
  9
$PSLTSCALE
 70
     1
  9
$TREEDEPTH
 70
  3020
  9
$CMLSTYLE
  2
Standard
  9
$CMLJUST
 70
     0
  9
$CMLSCALE
 40
20.0
  9
$PROXYGRAPHICS
 70
     1
  9
$MEASUREMENT
 70
     1
  9
$CELWEIGHT
370
    -1
  9
$ENDCAPS
280
     0
  9
$JOINSTYLE
280
     0
  9
$LWDISPLAY
290
     1
  9
$INSUNITS
 70
     4
  9
$HYPERLINKBASE
  1

  9
$STYLESHEET
  1

  9
$XEDIT
290
     1
  9
$CEPSNTYPE
380
     0
  9
$PSTYLEMODE
290
     1
  9
$FINGERPRINTGUID
  2
{9afb4a09-9b12-4e0d-b5ca-a1368b22c3d7}
  9
$VERSIONGUID
  2
{FAEB1C32-E019-11D5-929B-00C0DF256EC4}
  9
$EXTNAMES
290
     1
  9
$PSVPSCALE
 40
0.0
  9
$OLESTARTUP
290
     0
  0
ENDSEC
  0
SECTION
  2
CLASSES
  0
CLASS
  1
ACDBDICTIONARYWDFLT
  2
AcDbDictionaryWithDefault
  3
ObjectDBX Classes
 90
        0
280
     0
281
     0
  0
CLASS
  1
VISUALSTYLE
  2
AcDbVisualStyle
  3
ObjectDBX Classes
 90
     4095
280
     0
281
     0
  0
CLASS
  1
MATERIAL
  2
AcDbMaterial
  3
ObjectDBX Classes
 90
     1153
280
     0
281
     0
  0
CLASS
  1
SCALE
  2
AcDbScale
  3
ObjectDBX Classes
 90
     1153
280
     0
281
     0
  0
CLASS
  1
TABLESTYLE
  2
AcDbTableStyle
  3
ObjectDBX Classes
 90
     4095
280
     0
281
     0
  0
CLASS
  1
MLEADERSTYLE
  2
AcDbMLeaderStyle
  3
ACDB_MLEADERSTYLE_CLASS
 90
     4095
280
     0
281
     0
  0
CLASS
  1
SUN
  2
AcDbSun
  3
SCENEOE
 90
     1153
280
     0
281
     0
  0
CLASS
  1
ACDBPLACEHOLDER
  2
AcDbPlaceHolder
  3
ObjectDBX Classes
 90
        0
280
     0
281
     0
  0
CLASS
  1
LAYOUT
  2
AcDbLayout
  3
ObjectDBX Classes
 90
        0
280
     0
281
     0
  0
ENDSEC
  0
SECTION
  2
TABLES
  0
TABLE
  2
VPORT
  5
8
330
0
100
AcDbSymbolTable
 70
     1
  0
VPORT
  5
29
330
8
100
AcDbSymbolTableRecord
100
AcDbViewportTableRecord
  2
*Active
 70
     0
 10
0.0
 20
0.0
 11
1.0
 21
1.0
 12
139.7
 22
107.95
 13
0.0
 23
0.0
 14
10.0
 24
10.0
 15
10.0
 25
10.0
 16
0.0
 26
0.0
 36
1.0
 17
0.0
 27
0.0
 37
0.0
 40
215.9
 41
1.2941176471
 42
50.0
 43
0.0
 44
0.0
 50
0.0
 51
0.0
 71
     0
 72
  2000
 73
     1
 74
     3
 75
     0
 76
     0
 77
     0
 78
     0
281
     0
 65
     1
110
0.0
120
0.0
130
0.0
111
1.0
121
0.0
131
0.0
112
0.0
122
1.0
132
0.0
 79
     0
146
0.0
  0
ENDTAB
  0
TABLE
  2
LTYPE
  5
5
330
0
100
AcDbSymbolTable
 70
     6
  0
LTYPE
  5
14
330
5
100
AcDbSymbolTableRecord
100
AcDbLinetypeTableRecord
  2
ByBlock
 70
     0
  3

 72
    65
 73
     0
 40
0.0
  0
LTYPE
  5
15
330
5
100
AcDbSymbolTableRecord
100
AcDbLinetypeTableRecord
  2
ByLayer
 70
     0
  3

 72
    65
 73
     0
 40
0.0
  0
LTYPE
  5
16
330
5
100
AcDbSymbolTableRecord
100
AcDbLinetypeTableRecord
  2
Continuous
 70
     0
  3
Solid line
 72
    65
 73
     0
 40
0.0
  0
LTYPE
  5
6E
330
5
100
AcDbSymbolTableRecord
100
AcDbLinetypeTableRecord
  2
HIDDEN
 70
     0
  3
Hidden __ __ __ __ __ __ __ __ __ __ __ __ __ __
 72
    65
 73
     2
 40
1.905
 49
1.27
 74
     0
 49
-0.635
 74
     0
  0
LTYPE
  5
6F
330
5
100
AcDbSymbolTableRecord
100
AcDbLinetypeTableRecord
  2
PHANTOM
 70
     0
  3
Phantom ______  __  __  ______  __  __  ______
 72
    65
 73
     6
 40
12.7
 49
6.35
 74
     0
 49
-1.27
 74
     0
 49
1.27
 74
     0
 49
-1.27
 74
     0
 49
1.27
 74
     0
 49
-1.27
 74
     0
  0
LTYPE
  5
70
330
5
100
AcDbSymbolTableRecord
100
AcDbLinetypeTableRecord
  2
CENTER
 70
     0
  3
Center ____ _ ____ _ ____ _ ____ _ ____ _ ____
 72
    65
 73
     4
 40
10.16
 49
6.35
 74
     0
 49
-1.27
 74
     0
 49
1.27
 74
     0
 49
-1.27
 74
     0
  0
LTYPE
  5
71
330
5
100
AcDbSymbolTableRecord
100
AcDbLinetypeTableRecord
  2
CENTERX2
 70
     0
  3
Center (2x) ________  __  ________  __  _____
 72
    65
 73
     4
 40
20.32
 49
12.7
 74
     0
 49
-2.54
 74
     0
 49
2.54
 74
     0
 49
-2.54
 74
     0
  0
LTYPE
  5
72
330
5
100
AcDbSymbolTableRecord
100
AcDbLinetypeTableRecord
  2
DOT2
 70
     0
  3
Dot (.5x) ........................................
 72
    65
 73
     2
 40
0.635
 49
0.0
 74
     0
 49
-0.635
 74
     0
  0
ENDTAB
  0
TABLE
  2
LAYER
  5
2
330
0
100
AcDbSymbolTable
 70
    17
  0
LAYER
  5
10
330
2
100
AcDbSymbolTableRecord
100
AcDbLayerTableRecord
  2
0
 70
     0
 62
     7
  6
Continuous
370
    -3
390
F
  0
LAYER
  5
73
330
2
100
AcDbSymbolTableRecord
100
AcDbLayerTableRecord
  2
FORMAT
 70
     0
 62
     7
  6
Continuous
370
    -3
390
F
  0
LAYER
  5
74
330
2
100
AcDbSymbolTableRecord
100
AcDbLayerTableRecord
  2
YARDIMCI_GEOMETRI
 70
     0
 62
    -6
  6
Continuous
290
     0
370
    -3
390
F
  0
LAYER
  5
75
330
2
100
AcDbSymbolTableRecord
100
AcDbLayerTableRecord
  2
SAYFA_CERCEVESI
 70
     0
 62
     7
  6
Continuous
370
    25
390
F
  0
LAYER
  5
76
330
2
100
AcDbSymbolTableRecord
100
AcDbLayerTableRecord
  2
ANTET
 70
     0
 62
     7
  6
Continuous
370
    -3
390
F
  0
LAYER
  5
77
330
2
100
AcDbSymbolTableRecord
100
AcDbLayerTableRecord
  2
OLCU
 70
     0
 62
   150
  6
Continuous
370
    -3
390
F
  0
LAYER
  5
78
330
2
100
AcDbSymbolTableRecord
100
AcDbLayerTableRecord
  2
METIN
 70
     0
 62
    96
  6
Continuous
370
    -3
390
F
  0
LAYER
  5
79
330
2
100
AcDbSymbolTableRecord
100
AcDbLayerTableRecord
  2
BALON
 70
     0
 62
     5
  6
Continuous
370
    -3
390
F
  0
LAYER
  5
7A
330
2
100
AcDbSymbolTableRecord
100
AcDbLayerTableRecord
  2
VURGU
 70
     0
 62
     7
  6
Continuous
370
    -3
390
F
  0
LAYER
  5
7B
330
2
100
AcDbSymbolTableRecord
100
AcDbLayerTableRecord
  2
SILIK
 70
     0
 62
     7
  6
Continuous
370
    -3
390
F
  0
LAYER
  5
7C
330
2
100
AcDbSymbolTableRecord
100
AcDbLayerTableRecord
  2
MODEL
 70
     0
 62
     7
  6
Continuous
370
    -3
390
F
  0
LAYER
  5
7D
330
2
100
AcDbSymbolTableRecord
100
AcDbLayerTableRecord
  2
DETAYLANDıRMA
 70
     0
 62
   190
  6
Continuous
370
    -3
390
F
  0
LAYER
  5
7E
330
2
100
AcDbSymbolTableRecord
100
AcDbLayerTableRecord
  2
TOLERANS
 70
     0
 62
   230
  6
Continuous
370
    -3
390
F
  0
LAYER
  5
7F
330
2
100
AcDbSymbolTableRecord
100
AcDbLayerTableRecord
  2
MERKEZ_CIZGILERI
 70
     0
 62
    30
  6
Continuous
370
    -3
390
F
  0
LAYER
  5
80
330
2
100
AcDbSymbolTableRecord
100
AcDbLayerTableRecord
  2
KESIT-DETAY_CIZGILERI
 70
     0
 62
     7
  6
Continuous
370
    -3
390
F
  0
LAYER
  5
81
330
2
100
AcDbSymbolTableRecord
100
AcDbLayerTableRecord
  2
\U+041E\U+0421\U+0415\U+0412\U+042B\U+0415
 70
     0
 62
     7
  6
Continuous
370
    -3
390
F
  0
LAYER
  5
82
330
2
100
AcDbSymbolTableRecord
100
AcDbLayerTableRecord
  2
\U+0412\U+041E\U+0414\U+042F\U+041D\U+042B\U+0415_\U+0417\U+041D\U+0410\U+041A\U+0418
 70
     0
 62
    11
  6
Continuous
370
    -3
390
F
  0
ENDTAB
  0
TABLE
  2
STYLE
  5
3
330
0
100
AcDbSymbolTable
 70
     1
  0
STYLE
  5
11
330
3
100
AcDbSymbolTableRecord
100
AcDbTextStyleTableRecord
  2
Standard
 70
     0
 40
0.0
 41
1.0
 50
0.0
 71
     0
 42
3.5
  3
txt
  4

  0
ENDTAB
  0
TABLE
  2
VIEW
  5
6
330
0
100
AcDbSymbolTable
 70
     0
  0
ENDTAB
  0
TABLE
  2
UCS
  5
7
330
0
100
AcDbSymbolTable
 70
     0
  0
ENDTAB
  0
TABLE
  2
APPID
  5
9
330
0
100
AcDbSymbolTable
 70
     1
  0
APPID
  5
12
330
9
100
AcDbSymbolTableRecord
100
AcDbRegAppTableRecord
  2
ACAD
 70
     0
  0
ENDTAB
  0
TABLE
  2
DIMSTYLE
  5
A
330
0
100
AcDbSymbolTable
 70
     1
100
AcDbDimStyleTable
  0
DIMSTYLE
105
27
330
A
100
AcDbSymbolTableRecord
100
AcDbDimStyleTableRecord
  2
ISO-25
 70
     0
 41
2.5
 42
0.625
 43
3.75
 44
1.25
 73
     0
 74
     0
 77
     1
 78
     8
140
2.5
141
2.5
143
0.0393700787
147
0.625
171
     3
172
     1
178
     0
271
     2
272
     2
274
     3
278
    44
283
     0
284
     8
340
11
  0
ENDTAB
  0
TABLE
  2
BLOCK_RECORD
  5
1
330
0
100
AcDbSymbolTable
 70
     4
  0
BLOCK_RECORD
  5
1F
330
1
100
AcDbSymbolTableRecord
100
AcDbBlockTableRecord
  2
*Model_Space
340
22
  0
BLOCK_RECORD
  5
1B
330
1
100
AcDbSymbolTableRecord
100
AcDbBlockTableRecord
  2
*Paper_Space
340
1E
  0
BLOCK_RECORD
  5
23
330
1
100
AcDbSymbolTableRecord
100
AcDbBlockTableRecord
  2
*Paper_Space0
340
26
  0
BLOCK_RECORD
  5
8C
330
1
100
AcDbSymbolTableRecord
100
AcDbBlockTableRecord
  2
SW_CENTERMARKSYMBOL_0
340
0
102
{BLKREFS
331
97
102
}
  0
BLOCK_RECORD
  5
C6
330
1
100
AcDbSymbolTableRecord
100
AcDbBlockTableRecord
  2
SW_CENTERMARKSYMBOL_1
340
0
102
{BLKREFS
331
D1
102
}
  0
BLOCK_RECORD
  5
D2
330
1
100
AcDbSymbolTableRecord
100
AcDbBlockTableRecord
  2
SW_CENTERMARKSYMBOL_2
340
0
102
{BLKREFS
331
DD
102
}
  0
ENDTAB
  0
ENDSEC
  0
SECTION
  2
BLOCKS
  0
BLOCK
  5
20
330
1F
100
AcDbEntity
  8
0
100
AcDbBlockBegin
  2
*Model_Space
 70
     0
 10
0.0
 20
0.0
 30
0.0
  3
*Model_Space
  1

  0
ENDBLK
  5
21
330
1F
100
AcDbEntity
  8
0
100
AcDbBlockEnd
  0
BLOCK
  5
1C
330
1B
100
AcDbEntity
 67
     1
  8
0
100
AcDbBlockBegin
  2
*Paper_Space
 70
     0
 10
0.0
 20
0.0
 30
0.0
  3
*Paper_Space
  1

  0
ENDBLK
  5
1D
330
1B
100
AcDbEntity
 67
     1
  8
0
100
AcDbBlockEnd
  0
BLOCK
  5
24
330
23
100
AcDbEntity
  8
0
100
AcDbBlockBegin
  2
*Paper_Space0
 70
     0
 10
0.0
 20
0.0
 30
0.0
  3
*Paper_Space0
  1

  0
ENDBLK
  5
25
330
23
100
AcDbEntity
  8
0
100
AcDbBlockEnd
  0
BLOCK
  5
8D
330
8C
100
AcDbEntity
  8
0
100
AcDbBlockBegin
  2
SW_CENTERMARKSYMBOL_0
 70
     0
 10
0.0
 20
0.0
 30
0.0
  3
SW_CENTERMARKSYMBOL_0
  1

  0
LINE
  5
8F
330
8C
100
AcDbEntity
  8
FORMAT
 62
     0
100
AcDbLine
 10
0.0
 20
0.0
 30
0.0
 11
0.0
 21
2.5
 31
0.0
  0
LINE
  5
90
330
8C
100
AcDbEntity
  8
FORMAT
 62
     0
100
AcDbLine
 10
0.0
 20
0.0
 30
0.0
 11
-2.5
 21
0.0
 31
0.0
  0
LINE
  5
91
330
8C
100
AcDbEntity
  8
FORMAT
 62
     0
100
AcDbLine
 10
0.0
 20
0.0
 30
0.0
 11
0.0
 21
-2.5
 31
0.0
  0
LINE
  5
92
330
8C
100
AcDbEntity
  8
FORMAT
 62
     0
100
AcDbLine
 10
0.0
 20
0.0
 30
0.0
 11
2.5
 21
0.0
 31
0.0
  0
LINE
  5
93
330
8C
100
AcDbEntity
  8
FORMAT
 62
     0
100
AcDbLine
 10
0.0
 20
5.0
 30
0.0
 11
0.0
 21
80.0
 31
0.0
  0
LINE
  5
94
330
8C
100
AcDbEntity
  8
FORMAT
 62
     0
100
AcDbLine
 10
-5.0
 20
0.0
 30
0.0
 11
-80.0
 21
0.0
 31
0.0
  0
LINE
  5
95
330
8C
100
AcDbEntity
  8
FORMAT
 62
     0
100
AcDbLine
 10
0.0
 20
-5.0
 30
0.0
 11
0.0
 21
-80.0
 31
0.0
  0
LINE
  5
96
330
8C
100
AcDbEntity
  8
FORMAT
 62
     0
100
AcDbLine
 10
5.0
 20
0.0
 30
0.0
 11
80.0
 21
0.0
 31
0.0
  0
ENDBLK
  5
8E
330
8C
100
AcDbEntity
  8
0
100
AcDbBlockEnd
  0
BLOCK
  5
C7
330
C6
100
AcDbEntity
  8
0
100
AcDbBlockBegin
  2
SW_CENTERMARKSYMBOL_1
 70
     0
 10
0.0
 20
0.0
 30
0.0
  3
SW_CENTERMARKSYMBOL_1
  1

  0
LINE
  5
C9
330
C6
100
AcDbEntity
  8
FORMAT
 62
     0
100
AcDbLine
 10
0.0
 20
0.0
 30
0.0
 11
0.0
 21
2.5
 31
0.0
  0
LINE
  5
CA
330
C6
100
AcDbEntity
  8
FORMAT
 62
     0
100
AcDbLine
 10
0.0
 20
0.0
 30
0.0
 11
-2.5
 21
0.0
 31
0.0
  0
LINE
  5
CB
330
C6
100
AcDbEntity
  8
FORMAT
 62
     0
100
AcDbLine
 10
0.0
 20
0.0
 30
0.0
 11
0.0
 21
-2.5
 31
0.0
  0
LINE
  5
CC
330
C6
100
AcDbEntity
  8
FORMAT
 62
     0
100
AcDbLine
 10
0.0
 20
0.0
 30
0.0
 11
2.5
 21
0.0
 31
0.0
  0
LINE
  5
CD
330
C6
100
AcDbEntity
  8
FORMAT
 62
     0
100
AcDbLine
 10
0.0
 20
5.0
 30
0.0
 11
0.0
 21
9.5
 31
0.0
  0
LINE
  5
CE
330
C6
100
AcDbEntity
  8
FORMAT
 62
     0
100
AcDbLine
 10
-5.0
 20
0.0
 30
0.0
 11
-9.5
 21
0.0
 31
0.0
  0
LINE
  5
CF
330
C6
100
AcDbEntity
  8
FORMAT
 62
     0
100
AcDbLine
 10
0.0
 20
-5.0
 30
0.0
 11
0.0
 21
-9.5
 31
0.0
  0
LINE
  5
D0
330
C6
100
AcDbEntity
  8
FORMAT
 62
     0
100
AcDbLine
 10
5.0
 20
0.0
 30
0.0
 11
9.5
 21
0.0
 31
0.0
  0
ENDBLK
  5
C8
330
C6
100
AcDbEntity
  8
0
100
AcDbBlockEnd
  0
BLOCK
  5
D3
330
D2
100
AcDbEntity
  8
0
100
AcDbBlockBegin
  2
SW_CENTERMARKSYMBOL_2
 70
     0
 10
0.0
 20
0.0
 30
0.0
  3
SW_CENTERMARKSYMBOL_2
  1

  0
LINE
  5
D5
330
D2
100
AcDbEntity
  8
FORMAT
 62
     0
100
AcDbLine
 10
0.0
 20
0.0
 30
0.0
 11
0.0
 21
2.5
 31
0.0
  0
LINE
  5
D6
330
D2
100
AcDbEntity
  8
FORMAT
 62
     0
100
AcDbLine
 10
0.0
 20
0.0
 30
0.0
 11
-2.5
 21
0.0
 31
0.0
  0
LINE
  5
D7
330
D2
100
AcDbEntity
  8
FORMAT
 62
     0
100
AcDbLine
 10
0.0
 20
0.0
 30
0.0
 11
0.0
 21
-2.5
 31
0.0
  0
LINE
  5
D8
330
D2
100
AcDbEntity
  8
FORMAT
 62
     0
100
AcDbLine
 10
0.0
 20
0.0
 30
0.0
 11
2.5
 21
0.0
 31
0.0
  0
LINE
  5
D9
330
D2
100
AcDbEntity
  8
FORMAT
 62
     0
100
AcDbLine
 10
0.0
 20
5.0
 30
0.0
 11
0.0
 21
9.5
 31
0.0
  0
LINE
  5
DA
330
D2
100
AcDbEntity
  8
FORMAT
 62
     0
100
AcDbLine
 10
-5.0
 20
0.0
 30
0.0
 11
-9.5
 21
0.0
 31
0.0
  0
LINE
  5
DB
330
D2
100
AcDbEntity
  8
FORMAT
 62
     0
100
AcDbLine
 10
0.0
 20
-5.0
 30
0.0
 11
0.0
 21
-9.5
 31
0.0
  0
LINE
  5
DC
330
D2
100
AcDbEntity
  8
FORMAT
 62
     0
100
AcDbLine
 10
5.0
 20
0.0
 30
0.0
 11
9.5
 21
0.0
 31
0.0
  0
ENDBLK
  5
D4
330
D2
100
AcDbEntity
  8
0
100
AcDbBlockEnd
  0
ENDSEC
  0
SECTION
  2
ENTITIES
  0
LINE
  5
83
330
1F
100
AcDbEntity
  8
0
  6
Continuous
 62
     7
370
    25
100
AcDbLine
 10
129.1701403815
 20
40.4901424992
 30
0.0
 11
129.1701403815
 21
22.1754170122
 31
0.0
  0
LINE
  5
84
330
1F
100
AcDbEntity
  8
0
  6
Continuous
 62
     7
370
    25
100
AcDbLine
 10
143.1701403815
 20
22.1754170122
 30
0.0
 11
143.1701403815
 21
40.4919657848
 31
0.0
  0
CIRCLE
  5
85
330
1F
100
AcDbEntity
  8
0
  6
Continuous
 62
     7
370
    25
100
AcDbCircle
 10
136.1701403815
 20
117.6754170122
 30
0.0
 40
77.5
  0
CIRCLE
  5
86
330
1F
100
AcDbEntity
  8
0
  6
Continuous
 62
     7
370
    25
100
AcDbCircle
 10
136.1701403815
 20
117.6754170122
 30
0.0
 40
62.49999999999999
  0
LINE
  5
87
330
1F
100
AcDbEntity
  8
0
  6
Continuous
 62
     7
370
    25
100
AcDbLine
 10
136.1701403815
 20
22.1754170122
 30
0.0
 11
143.1701403815
 21
22.1754170122
 31
0.0
  0
LINE
  5
88
330
1F
100
AcDbEntity
  8
0
  6
Continuous
 62
     7
370
    25
100
AcDbLine
 10
129.1701403815
 20
22.1754170122
 30
0.0
 11
136.1701403815
 21
22.1754170122
 31
0.0
  0
CIRCLE
  5
89
330
1F
100
AcDbEntity
  8
0
  6
Continuous
 62
     7
370
    25
100
AcDbCircle
 10
136.1701403815
 20
117.6754170122
 30
0.0
 40
62.02551392693422
  0
CIRCLE
  5
8A
330
1F
100
AcDbEntity
  8
0
  6
Continuous
 62
     7
370
    25
100
AcDbCircle
 10
136.1701403815
 20
117.6754170122
 30
0.0
 40
45.47448607306578
  0
CIRCLE
  5
8B
330
1F
100
AcDbEntity
  8
0
  6
Continuous
 62
     7
370
    25
100
AcDbCircle
 10
136.1701403815
 20
117.6754170122
 30
0.0
 40
45.0
  0
INSERT
  5
97
330
1F
100
AcDbEntity
  8
FORMAT
 62
     7
100
AcDbBlockReference
  2
SW_CENTERMARKSYMBOL_0
 10
136.1701403815
 20
117.6754170122
 30
0.0
  0
ARC
  5
98
330
1F
100
AcDbEntity
  8
0
  6
Continuous
 62
     7
370
    25
100
AcDbCircle
 10
-94.3944444701
 20
193.1754170122
 30
0.0
 40
2.000000000000011
100
AcDbArc
 50
49.7078522444
 51
90.0
  0
ARC
  5
99
330
1F
100
AcDbEntity
  8
0
  6
Continuous
 62
     7
370
    25
100
AcDbCircle
 10
-94.3944444701
 20
42.1754170122
 30
0.0
 40
2.000000000000016
100
AcDbArc
 50
270.0
 51
310.2921477556
  0
LINE
  5
9A
330
1F
100
AcDbEntity
  8
0
  6
Continuous
 62
     7
370
    25
100
AcDbLine
 10
-94.3944444701
 20
195.1754170122
 30
0.0
 11
-168.6607242068
 21
195.1754170122
 31
0.0
  0
LINE
  5
9B
330
1F
100
AcDbEntity
  8
0
  6
Continuous
 62
     7
370
    25
100
AcDbLine
 10
-153.6823788919
 20
40.1754170122
 30
0.0
 11
-94.3944444701
 21
40.1754170122
 31
0.0
  0
LINE
  5
9C
330
1F
100
AcDbEntity
  8
0
  6
Continuous
 62
     7
370
    25
100
AcDbLine
 10
-168.6607242068
 20
40.1754170122
 30
0.0
 11
-167.6607242068
 21
40.1754170122
 31
0.0
  0
LINE
  5
9D
330
1F
100
AcDbEntity
  8
0
  6
Continuous
 62
     7
370
    25
100
AcDbLine
 10
-93.1010739668
 20
40.6499030853
 30
0.0
 11
-71.2203744468
 21
59.2009309392
 31
0.0
  0
LINE
  5
9E
330
1F
100
AcDbEntity
  8
0
  6
Continuous
 62
     7
370
    25
100
AcDbLine
 10
-71.2203744468
 20
176.1499030853
 30
0.0
 11
-93.1010739668
 21
194.7009309392
 31
0.0
  0
ARC
  5
9F
330
1F
100
AcDbEntity
  8
0
  6
Continuous
 62
     7
370
    25
100
AcDbCircle
 10
-69.9270039436
 20
177.6754170122
 30
0.0
 40
2.000000000000002
100
AcDbArc
 50
229.7078522444
 51
270.0
  0
ARC
  5
A0
330
1F
100
AcDbEntity
  8
0
  6
Continuous
 62
     7
370
    25
100
AcDbCircle
 10
-69.9270039436
 20
57.6754170122
 30
0.0
 40
1.999999999999997
100
AcDbArc
 50
90.0
 51
130.2921477556
  0
LINE
  5
A1
330
1F
100
AcDbEntity
  8
0
  6
Continuous
 62
     7
370
    25
100
AcDbLine
 10
-8.6607242068
 20
175.6754170122
 30
0.0
 11
-69.9270039436
 21
175.6754170122
 31
0.0
  0
LINE
  5
A2
330
1F
100
AcDbEntity
  8
0
  6
Continuous
 62
     7
370
    25
100
AcDbLine
 10
-9.6816620219
 20
59.6754170122
 30
0.0
 11
-8.6607242068
 21
59.6754170122
 31
0.0
  0
LINE
  5
A3
330
1F
100
AcDbEntity
  8
0
  6
Continuous
 62
     7
370
    25
100
AcDbLine
 10
-69.9270039436
 20
59.6754170122
 30
0.0
 11
-23.6607242068
 21
59.6754170122
 31
0.0
  0
LINE
  5
A4
330
1F
100
AcDbEntity
  8
0
  6
Continuous
 62
     7
370
    25
100
AcDbLine
 10
-23.6607242068
 20
59.6754170122
 30
0.0
 11
-23.6607242068
 21
47.6754170122
 31
0.0
  0
LINE
  5
A5
330
1F
100
AcDbEntity
  8
0
  6
Continuous
 62
     7
370
    25
100
AcDbLine
 10
-9.6607242068
 20
47.6754170122
 30
0.0
 11
-9.6607242068
 21
59.6779359263
 31
0.0
  0
LINE
  5
A6
330
1F
100
AcDbEntity
  8
0
  6
Continuous
 62
     7
370
    25
100
AcDbLine
 10
-167.6607242068
 20
40.1754170122
 30
0.0
 11
-167.6607242068
 21
22.1754170122
 31
0.0
  0
LINE
  5
A7
330
1F
100
AcDbEntity
  8
0
  6
Continuous
 62
     7
370
    25
100
AcDbLine
 10
-153.6607242068
 20
22.1754170122
 30
0.0
 11
-153.6607242068
 21
40.1773672427
 31
0.0
  0
LINE
  5
A8
330
1F
100
AcDbEntity
  8
0
  6
Continuous
 62
     7
370
    25
100
AcDbLine
 10
-168.6607242068
 20
195.1754170122
 30
0.0
 11
-168.6607242068
 21
40.1754170122
 31
0.0
  0
SPLINE
  5
A9
330
1F
100
AcDbEntity
  8
0
  6
Continuous
 62
     7
370
    25
100
AcDbSpline
210
0.0
220
0.0
230
1.0
 70
     8
 71
     3
 72
    26
 73
    22
 74
     0
 42
0.00000001
 43
0.00000001
 40
0.0
 40
0.0
 40
0.0
 40
0.0
 40
0.0180415905377224
 40
0.0723618730702438
 40
0.1250642254982118
 40
0.179287003440413
 40
0.2321359061577695
 40
0.2865084537567225
 40
0.3395058087781332
 40
0.3940441058058816
 40
0.446959738626216
 40
0.5014208299440348
 40
0.5541508496509228
 40
0.6084107486866603
 40
0.6611414115564936
 40
0.7153908141892411
 40
0.7683066919355492
 40
0.822751765531216
 40
0.8757491345180222
 40
0.9302915666277056
 40
1.0
 40
1.0
 40
1.0
 40
1.0
 10
-153.6823788918734
 20
40.17736857911375
 30
0.0
 10
-153.676477090276
 20
40.17683680463195
 30
0.0
 10
-153.6528059279589
 20
40.17470394403551
 30
0.0
 10
-153.8143003985205
 20
40.18929000903265
 30
0.0
 10
-154.1658134128378
 20
40.21981452883441
 30
0.0
 10
-154.709459808021
 20
40.26394770979529
 30
0.0
 10
-155.4234073016387
 20
40.31602762912235
 30
0.0
 10
-156.2806561848842
 20
40.36986185563342
 30
0.0
 10
-157.2712565358403
 20
40.42012818703623
 30
0.0
 10
-158.3497530175595
 20
40.46031915037808
 30
0.0
 10
-159.5039156405734
 20
40.48648051814609
 30
0.0
 10
-160.678670073196
 20
40.49522302630989
 30
0.0
 10
-161.8621566171474
 20
40.4857753251266
 30
0.0
 10
-162.9995191560064
 20
40.45944064583025
 30
0.0
 10
-164.0805424706154
 20
40.41876615567933
 30
0.0
 10
-165.0568262185214
 20
40.36892122344286
 30
0.0
 10
-165.9179399355669
 20
40.31468999707334
 30
0.0
 10
-166.6256049195185
 20
40.26286676514698
 30
0.0
 10
-167.1658106278665
 20
40.21899919865896
 30
0.0
 10
-167.5716866542634
 20
40.18356167111487
 30
0.0
 10
-167.6287243576907
 20
40.17834418002008
 30
0.0
 10
-167.6607242068156
 20
40.17541701223783
 30
0.0
  0
SPLINE
  5
AA
330
1F
100
AcDbEntity
  8
0
  6
Continuous
 62
     7
370
    25
100
AcDbSpline
210
0.0
220
0.0
230
1.0
 70
     8
 71
     3
 72
    26
 73
    22
 74
     0
 42
0.00000001
 43
0.00000001
 40
0.0
 40
0.0
 40
0.0
 40
0.0
 40
0.0169544436331284
 40
0.0711665822828484
 40
0.1236924189132668
 40
0.1777276862584465
 40
0.230509732795979
 40
0.2848063173926076
 40
0.3378570084090634
 40
0.3924529394644621
 40
0.4453644964323277
 40
0.499830162517964
 40
0.5524077604826467
 40
0.6065117883452326
 40
0.6590832847583679
 40
0.7131608926287368
 40
0.7660614481735747
 40
0.8204861364877681
 40
0.8735398514121113
 40
0.9281463500423596
 40
1.0
 40
1.0
 40
1.0
 40
1.0
 10
-9.681662021933116
 20
59.67793809334842
 30
0.0
 10
-9.675809912782066
 20
59.67723357259231
 30
0.0
 10
-9.651245579298987
 20
59.6742763340392
 30
0.0
 10
-9.808842727539693
 20
59.69330209003387
 30
0.0
 10
-10.15460805359887
 20
59.73347889017627
 30
0.0
 10
-10.69209986287326
 20
59.79194924219512
 30
0.0
 10
-11.39961056791536
 20
59.86124220497302
 30
0.0
 10
-12.25174192980895
 20
59.9332607767603
 30
0.0
 10
-13.23868467821705
 20
60.00086767656177
 30
0.0
 10
-14.31530421138863
 20
60.05525497697067
 30
0.0
 10
-15.46859240487082
 20
60.09099663171984
 30
0.0
 10
-16.6422087267843
 20
60.10343402951217
 30
0.0
 10
-17.82444131530933
 20
60.09153782178241
 30
0.0
 10
-18.96036746012758
 20
60.05704889855344
 30
0.0
 10
-20.04100666451357
 20
60.00331251474099
 30
0.0
 10
-21.01919277605181
 20
59.93709722411129
 30
0.0
 10
-21.88455046813047
 20
59.86469246101625
 30
0.0
 10
-22.59879732805187
 20
59.795096853617
 30
0.0
 10
-23.14679368610955
 20
59.73581685476157
 30
0.0
 10
-23.56692027330491
 20
59.68689115066248
 30
0.0
 10
-23.62673688443788
 20
59.67957435646689
 30
0.0
 10
-23.66072420681565
 20
59.67541701223782
 30
0.0
  0
LINE
  5
AB
330
1F
100
AcDbEntity
  8
0
  6
Continuous
 62
     7
370
    25
100
AcDbLine
 10
-8.6607242068
 20
175.6754170122
 30
0.0
 11
-8.6607242068
 21
59.6754170122
 31
0.0
  0
LINE
  5
AC
330
1F
100
AcDbEntity
  8
0
  6
Continuous
 62
     7
370
    25
100
AcDbLine
 10
-23.6607242068
 20
47.6754170122
 30
0.0
 11
-9.6607242068
 21
47.6754170122
 31
0.0
  0
LINE
  5
AD
330
1F
100
AcDbEntity
  8
0
  6
Continuous
 62
     7
370
    25
100
AcDbLine
 10
-167.6607242068
 20
22.1754170122
 30
0.0
 11
-153.6607242068
 21
22.1754170122
 31
0.0
  0
LINE
  5
AE
330
1F
100
AcDbEntity
  8
0
  6
Continuous
 62
     1
370
    25
100
AcDbLine
 10
-93.1010739668
 20
194.7009309392
 30
0.0
 11
-93.1010739668
 21
40.6499030853
 31
0.0
  0
LINE
  5
AF
330
1F
100
AcDbEntity
  8
0
  6
Continuous
 62
     1
370
    25
100
AcDbLine
 10
-94.3944444701
 20
195.1754170122
 30
0.0
 11
-94.3944444701
 21
40.1754170122
 31
0.0
  0
LINE
  5
B0
330
1F
100
AcDbEntity
  8
0
  6
Continuous
 62
     1
370
    25
100
AcDbLine
 10
-71.2203744468
 20
176.1499030853
 30
0.0
 11
-71.2203744468
 21
59.2009309392
 31
0.0
  0
LINE
  5
B1
330
1F
100
AcDbEntity
  8
0
  6
Continuous
 62
     1
370
    25
100
AcDbLine
 10
-69.9270039436
 20
175.6754170122
 30
0.0
 11
-69.9270039436
 21
59.6754170122
 31
0.0
  0
ARC
  5
B2
330
1F
100
AcDbEntity
  8
0
  6
Continuous
 62
     7
370
    25
100
AcDbCircle
 10
211.6701403815
 20
338.517573577
 30
0.0
 40
2.000000000000028
100
AcDbArc
 50
319.7078522444
 51
0.0
  0
ARC
  5
B3
330
1F
100
AcDbEntity
  8
0
  6
Continuous
 62
     7
370
    25
100
AcDbCircle
 10
60.6701403815
 20
338.517573577
 30
0.0
 40
2.000000000000014
100
AcDbArc
 50
180.0
 51
220.2921477556
  0
LINE
  5
B4
330
1F
100
AcDbEntity
  8
0
  6
Continuous
 62
     7
370
    25
100
AcDbLine
 10
213.6701403815
 20
338.517573577
 30
0.0
 11
213.6701403815
 21
412.7838533137
 31
0.0
  0
LINE
  5
B5
330
1F
100
AcDbEntity
  8
0
  6
Continuous
 62
     7
370
    25
100
AcDbLine
 10
58.6701403815
 20
412.7838533137
 30
0.0
 11
58.6701403815
 21
338.517573577
 31
0.0
  0
LINE
  5
B6
330
1F
100
AcDbEntity
  8
0
  6
Continuous
 62
     7
370
    25
100
AcDbLine
 10
59.1446264546
 20
337.2242030737
 30
0.0
 11
77.6956543084
 21
315.3435035538
 31
0.0
  0
LINE
  5
B7
330
1F
100
AcDbEntity
  8
0
  6
Continuous
 62
     7
370
    25
100
AcDbLine
 10
194.6446264546
 20
315.3435035538
 30
0.0
 11
213.1956543084
 21
337.2242030737
 31
0.0
  0
ARC
  5
B8
330
1F
100
AcDbEntity
  8
0
  6
Continuous
 62
     7
370
    25
100
AcDbCircle
 10
196.1701403815
 20
314.0501330505
 30
0.0
 40
1.999999999999972
100
AcDbArc
 50
139.7078522444
 51
180.0
  0
ARC
  5
B9
330
1F
100
AcDbEntity
  8
0
  6
Continuous
 62
     7
370
    25
100
AcDbCircle
 10
76.1701403815
 20
314.0501330505
 30
0.0
 40
1.999999999999986
100
AcDbArc
 50
0.0
 51
40.2921477556
  0
LINE
  5
BA
330
1F
100
AcDbEntity
  8
0
  6
Continuous
 62
     7
370
    25
100
AcDbLine
 10
194.1701403815
 20
252.7838533137
 30
0.0
 11
194.1701403815
 21
314.0501330505
 31
0.0
  0
LINE
  5
BB
330
1F
100
AcDbEntity
  8
0
  6
Continuous
 62
     7
370
    25
100
AcDbLine
 10
78.1701403815
 20
314.0501330505
 30
0.0
 11
78.1701403815
 21
252.7838533137
 31
0.0
  0
CIRCLE
  5
BC
330
1F
100
AcDbEntity
  8
0
  6
Continuous
 62
     7
370
    25
100
AcDbCircle
 10
136.1701403815
 20
404.7838533137
 30
0.0
 40
7.0
  0
CIRCLE
  5
BD
330
1F
100
AcDbEntity
  8
0
  6
Continuous
 62
     7
370
    25
100
AcDbCircle
 10
136.1701403815
 20
404.7838533137
 30
0.0
 40
5.0
  0
LINE
  5
BE
330
1F
100
AcDbEntity
  8
0
  6
Continuous
 62
     7
370
    25
100
AcDbLine
 10
213.6701403815
 20
412.7838533137
 30
0.0
 11
58.6701403815
 21
412.7838533137
 31
0.0
  0
CIRCLE
  5
BF
330
1F
100
AcDbEntity
  8
0
  6
Continuous
 62
     7
370
    25
100
AcDbCircle
 10
136.1701403815
 20
260.7838533137
 30
0.0
 40
5.0
  0
CIRCLE
  5
C0
330
1F
100
AcDbEntity
  8
0
  6
Continuous
 62
     7
370
    25
100
AcDbCircle
 10
136.1701403815
 20
260.7838533137
 30
0.0
 40
7.0
  0
LINE
  5
C1
330
1F
100
AcDbEntity
  8
0
  6
Continuous
 62
     7
370
    25
100
AcDbLine
 10
194.1701403815
 20
252.7838533137
 30
0.0
 11
78.1701403815
 21
252.7838533137
 31
0.0
  0
LINE
  5
C2
330
1F
100
AcDbEntity
  8
0
  6
Continuous
 62
     1
370
    25
100
AcDbLine
 10
213.1956543084
 20
337.2242030737
 30
0.0
 11
59.1446264546
 21
337.2242030737
 31
0.0
  0
LINE
  5
C3
330
1F
100
AcDbEntity
  8
0
  6
Continuous
 62
     1
370
    25
100
AcDbLine
 10
213.6701403815
 20
338.517573577
 30
0.0
 11
58.6701403815
 21
338.517573577
 31
0.0
  0
LINE
  5
C4
330
1F
100
AcDbEntity
  8
0
  6
Continuous
 62
     1
370
    25
100
AcDbLine
 10
194.6446264546
 20
315.3435035538
 30
0.0
 11
77.6956543084
 21
315.3435035538
 31
0.0
  0
LINE
  5
C5
330
1F
100
AcDbEntity
  8
0
  6
Continuous
 62
     1
370
    25
100
AcDbLine
 10
194.1701403815
 20
314.0501330505
 30
0.0
 11
78.1701403815
 21
314.0501330505
 31
0.0
  0
INSERT
  5
D1
330
1F
100
AcDbEntity
  8
FORMAT
 62
     7
100
AcDbBlockReference
  2
SW_CENTERMARKSYMBOL_1
 10
136.1701403815
 20
260.7838533137
 30
0.0
  0
INSERT
  5
DD
330
1F
100
AcDbEntity
  8
FORMAT
 62
     7
100
AcDbBlockReference
  2
SW_CENTERMARKSYMBOL_2
 10
136.1701403815
 20
404.7838533137
 30
0.0
  0
ARC
  5
DE
330
1F
100
AcDbEntity
  8
0
  6
Continuous
 62
     7
370
    25
100
AcDbCircle
 10
352.5126556894
 20
42.1754170122
 30
0.0
 40
2.000000000000014
100
AcDbArc
 50
229.7078522444
 51
270.0
  0
ARC
  5
DF
330
1F
100
AcDbEntity
  8
0
  6
Continuous
 62
     7
370
    25
100
AcDbCircle
 10
352.5126556894
 20
193.1754170122
 30
0.0
 40
2.000000000000028
100
AcDbArc
 50
90.0
 51
130.2921477556
  0
LINE
  5
E0
330
1F
100
AcDbEntity
  8
0
  6
Continuous
 62
     7
370
    25
100
AcDbLine
 10
425.7789354262
 20
40.1754170122
 30
0.0
 11
426.7789354262
 21
40.1754170122
 31
0.0
  0
LINE
  5
E1
330
1F
100
AcDbEntity
  8
0
  6
Continuous
 62
     7
370
    25
100
AcDbLine
 10
352.5126556894
 20
40.1754170122
 30
0.0
 11
411.8005901113
 21
40.1754170122
 31
0.0
  0
LINE
  5
E2
330
1F
100
AcDbEntity
  8
0
  6
Continuous
 62
     7
370
    25
100
AcDbLine
 10
426.7789354262
 20
195.1754170122
 30
0.0
 11
352.5126556894
 21
195.1754170122
 31
0.0
  0
LINE
  5
E3
330
1F
100
AcDbEntity
  8
0
  6
Continuous
 62
     7
370
    25
100
AcDbLine
 10
351.2192851862
 20
194.7009309392
 30
0.0
 11
329.3385856662
 21
176.1499030853
 31
0.0
  0
LINE
  5
E4
330
1F
100
AcDbEntity
  8
0
  6
Continuous
 62
     7
370
    25
100
AcDbLine
 10
329.3385856662
 20
59.2009309392
 30
0.0
 11
351.2192851862
 21
40.6499030853
 31
0.0
  0
ARC
  5
E5
330
1F
100
AcDbEntity
  8
0
  6
Continuous
 62
     7
370
    25
100
AcDbCircle
 10
328.045215163
 20
57.6754170122
 30
0.0
 40
2.000000000000015
100
AcDbArc
 50
49.7078522444
 51
90.0
  0
ARC
  5
E6
330
1F
100
AcDbEntity
  8
0
  6
Continuous
 62
     7
370
    25
100
AcDbCircle
 10
328.045215163
 20
177.6754170122
 30
0.0
 40
2.00000000000002
100
AcDbArc
 50
270.0
 51
310.2921477556
  0
LINE
  5
E7
330
1F
100
AcDbEntity
  8
0
  6
Continuous
 62
     7
370
    25
100
AcDbLine
 10
281.7789354262
 20
59.6754170122
 30
0.0
 11
328.045215163
 21
59.6754170122
 31
0.0
  0
LINE
  5
E8
330
1F
100
AcDbEntity
  8
0
  6
Continuous
 62
     7
370
    25
100
AcDbLine
 10
266.7789354262
 20
59.6754170122
 30
0.0
 11
267.7998732413
 21
59.6754170122
 31
0.0
  0
LINE
  5
E9
330
1F
100
AcDbEntity
  8
0
  6
Continuous
 62
     7
370
    25
100
AcDbLine
 10
328.045215163
 20
175.6754170122
 30
0.0
 11
266.7789354262
 21
175.6754170122
 31
0.0
  0
LINE
  5
EA
330
1F
100
AcDbEntity
  8
0
  6
Continuous
 62
     7
370
    25
100
AcDbLine
 10
267.7789354262
 20
59.6779359263
 30
0.0
 11
267.7789354262
 21
47.6754170122
 31
0.0
  0
LINE
  5
EB
330
1F
100
AcDbEntity
  8
0
  6
Continuous
 62
     7
370
    25
100
AcDbLine
 10
281.7789354262
 20
47.6754170122
 30
0.0
 11
281.7789354262
 21
59.6754170122
 31
0.0
  0
LINE
  5
EC
330
1F
100
AcDbEntity
  8
0
  6
Continuous
 62
     7
370
    25
100
AcDbLine
 10
411.7789354262
 20
40.1773672427
 30
0.0
 11
411.7789354262
 21
22.1754170122
 31
0.0
  0
LINE
  5
ED
330
1F
100
AcDbEntity
  8
0
  6
Continuous
 62
     7
370
    25
100
AcDbLine
 10
425.7789354262
 20
22.1754170122
 30
0.0
 11
425.7789354262
 21
40.1754170122
 31
0.0
  0
LINE
  5
EE
330
1F
100
AcDbEntity
  8
0
  6
Continuous
 62
     7
370
    25
100
AcDbLine
 10
426.7789354262
 20
117.6754170122
 30
0.0
 11
426.7789354262
 21
195.1754170122
 31
0.0
  0
LINE
  5
EF
330
1F
100
AcDbEntity
  8
0
  6
Continuous
 62
     7
370
    25
100
AcDbLine
 10
426.7789354262
 20
40.1754170122
 30
0.0
 11
426.7789354262
 21
117.6754170122
 31
0.0
  0
SPLINE
  5
F0
330
1F
100
AcDbEntity
  8
0
  6
Continuous
 62
     7
370
    25
100
AcDbSpline
210
0.0
220
0.0
230
1.0
 70
     8
 71
     3
 72
    26
 73
    22
 74
     0
 42
0.00000001
 43
0.00000001
 40
0.0
 40
0.0
 40
0.0
 40
0.0
 40
0.0527790795919145
 40
0.1070925509389396
 40
0.1598705498203779
 40
0.2141717806938714
 40
0.2670835728666865
 40
0.321524250967308
 40
0.3745210185303928
 40
0.4290627102652591
 40
0.4819122370892102
 40
0.536303522321593
 40
0.5890032834098852
 40
0.6432273345960592
 40
0.6960084471052062
 40
0.7503094344590876
 40
0.8032758313265951
 40
0.8577774488872127
 40
0.910744610080772
 40
0.9652583105382706
 40
0.9999999999999999
 40
0.9999999999999999
 40
0.9999999999999999
 40
0.9999999999999999
 10
425.7789354261978
 20
40.17541701223782
 30
0.0
 10
425.7603237781241
 20
40.17710938659621
 30
0.0
 10
425.7225594047247
 20
40.18054333596758
 30
0.0
 10
425.4187850103646
 20
40.20744339411418
 30
0.0
 10
424.9383351796045
 20
40.24749022822397
 30
0.0
 10
424.2851667211034
 20
40.29719903202414
 30
0.0
 10
423.4702246711631
 20
40.35141416988849
 30
0.0
 10
422.5287451250782
 20
40.40332855657501
 30
0.0
 10
421.4709167823759
 20
40.44785222525179
 30
0.0
 10
420.3463562661212
 20
40.47917137080662
 30
0.0
 10
419.1675582815376
 20
40.49423947207622
 30
0.0
 10
417.9905767603381
 20
40.49115277526361
 30
0.0
 10
416.8266392456673
 20
40.47028848881342
 30
0.0
 10
415.7288924471137
 20
40.43438854284575
 30
0.0
 10
414.7073971204134
 20
40.38687940442477
 30
0.0
 10
413.8079074339265
 20
40.33376935095702
 30
0.0
 10
413.0410441230807
 20
40.28021739599444
 30
0.0
 10
412.4401504179902
 20
40.23287893508805
 30
0.0
 10
412.0223234284441
 20
40.1972535668552
 30
0.0
 10
411.7990082722435
 20
40.17723630790979
 30
0.0
 10
411.8001469092059
 20
40.17733151916754
 30
0.0
 10
411.8005901112555
 20
40.17736857911373
 30
0.0
  0
SPLINE
  5
F1
330
1F
100
AcDbEntity
  8
0
  6
Continuous
 62
     7
370
    25
100
AcDbSpline
210
0.0
220
0.0
230
1.0
 70
     8
 71
     3
 72
    26
 73
    22
 74
     0
 42
0.00000001
 43
0.00000001
 40
0.0
 40
0.0
 40
0.0
 40
0.0
 40
0.0526631704856912
 40
0.1068603220951259
 40
0.1595215811278313
 40
0.2136970770403672
 40
0.2665953723951054
 40
0.3210176956987942
 40
0.3740699438503968
 40
0.4286749931244488
 40
0.481465323952479
 40
0.5358030333239867
 40
0.5883239165884001
 40
0.6423608838560599
 40
0.69502498657519
 40
0.7491971491477564
 40
0.8021929079709907
 40
0.8567239035641425
 40
0.9097245191228046
 40
0.9642808588490376
 40
1.0
 40
1.0
 40
1.0
 40
1.0
 10
281.7789354261978
 20
59.6754170122378
 30
0.0
 10
281.7603893482823
 20
59.67767025458472
 30
0.0
 10
281.7227569793731
 20
59.68224237207645
 30
0.0
 10
281.4201040936292
 20
59.71806079509394
 30
0.0
 10
280.9416059337469
 20
59.77139670444954
 30
0.0
 10
280.2908765592284
 20
59.83768231596627
 30
0.0
 10
279.4783736499049
 20
59.91011758673024
 30
0.0
 10
278.5382698075732
 20
59.97967614009167
 30
0.0
 10
277.480826509577
 20
60.03948858276295
 30
0.0
 10
276.3561932390069
 20
60.08165531038971
 30
0.0
 10
275.1775674577793
 20
60.10204895207859
 30
0.0
 10
274.002177754046
 20
60.09812980282196
 30
0.0
 10
272.8405344082775
 20
60.07046650608756
 30
0.0
 10
271.7451206161937
 20
60.02275461754693
 30
0.0
 10
270.724930662973
 20
59.95950425886252
 30
0.0
 10
269.8245893119528
 20
59.88861388486475
 30
0.0
 10
269.0551879149524
 20
59.81693519142921
 30
0.0
 10
268.4506318986403
 20
59.75337442224876
 30
0.0
 10
268.0285245446001
 20
59.70532649757636
 30
0.0
 10
267.8008959033442
 20
59.67807684019866
 30
0.0
 10
267.8001631632879
 20
59.67797742771244
 30
0.0
 10
267.7998732413153
 20
59.67793809334841
 30
0.0
  0
LINE
  5
F2
330
1F
100
AcDbEntity
  8
0
  6
Continuous
 62
     7
370
    25
100
AcDbLine
 10
266.7789354262
 20
117.6754170122
 30
0.0
 11
266.7789354262
 21
175.6754170122
 31
0.0
  0
LINE
  5
F3
330
1F
100
AcDbEntity
  8
0
  6
Continuous
 62
     7
370
    25
100
AcDbLine
 10
266.7789354262
 20
59.6754170122
 30
0.0
 11
266.7789354262
 21
117.6754170122
 31
0.0
  0
LINE
  5
F4
330
1F
100
AcDbEntity
  8
0
  6
Continuous
 62
     7
370
    25
100
AcDbLine
 10
267.7789354262
 20
47.6754170122
 30
0.0
 11
281.7789354262
 21
47.6754170122
 31
0.0
  0
LINE
  5
F5
330
1F
100
AcDbEntity
  8
0
  6
Continuous
 62
     7
370
    25
100
AcDbLine
 10
411.7789354262
 20
22.1754170122
 30
0.0
 11
425.7789354262
 21
22.1754170122
 31
0.0
  0
LINE
  5
F6
330
1F
100
AcDbEntity
  8
0
  6
Continuous
 62
     1
370
    25
100
AcDbLine
 10
351.2192851862
 20
117.6754170122
 30
0.0
 11
351.2192851862
 21
194.7009309392
 31
0.0
  0
LINE
  5
F7
330
1F
100
AcDbEntity
  8
0
  6
Continuous
 62
     1
370
    25
100
AcDbLine
 10
351.2192851862
 20
40.6499030853
 30
0.0
 11
351.2192851862
 21
117.6754170122
 31
0.0
  0
LINE
  5
F8
330
1F
100
AcDbEntity
  8
0
  6
Continuous
 62
     1
370
    25
100
AcDbLine
 10
352.5126556894
 20
117.6754170122
 30
0.0
 11
352.5126556894
 21
195.1754170122
 31
0.0
  0
LINE
  5
F9
330
1F
100
AcDbEntity
  8
0
  6
Continuous
 62
     1
370
    25
100
AcDbLine
 10
352.5126556894
 20
40.1754170122
 30
0.0
 11
352.5126556894
 21
117.6754170122
 31
0.0
  0
LINE
  5
FA
330
1F
100
AcDbEntity
  8
0
  6
Continuous
 62
     1
370
    25
100
AcDbLine
 10
329.3385856662
 20
117.6754170122
 30
0.0
 11
329.3385856662
 21
176.1499030853
 31
0.0
  0
LINE
  5
FB
330
1F
100
AcDbEntity
  8
0
  6
Continuous
 62
     1
370
    25
100
AcDbLine
 10
329.3385856662
 20
59.2009309392
 30
0.0
 11
329.3385856662
 21
117.6754170122
 31
0.0
  0
LINE
  5
FC
330
1F
100
AcDbEntity
  8
0
  6
Continuous
 62
     1
370
    25
100
AcDbLine
 10
328.045215163
 20
117.6754170122
 30
0.0
 11
328.045215163
 21
175.6754170122
 31
0.0
  0
LINE
  5
FD
330
1F
100
AcDbEntity
  8
0
  6
Continuous
 62
     1
370
    25
100
AcDbLine
 10
328.045215163
 20
59.6754170122
 30
0.0
 11
328.045215163
 21
117.6754170122
 31
0.0
  0
ARC
  5
FE
330
1F
100
AcDbEntity
  8
0
  6
Continuous
 62
     7
370
    25
100
AcDbCircle
 10
60.6701403815
 20
-96.6406905067
 30
0.0
 40
2.000000000000014
100
AcDbArc
 50
139.7078522444
 51
180.0
  0
ARC
  5
FF
330
1F
100
AcDbEntity
  8
0
  6
Continuous
 62
     7
370
    25
100
AcDbCircle
 10
211.6701403815
 20
-96.6406905067
 30
0.0
 40
2.000000000000028
100
AcDbArc
 50
0.0
 51
40.2921477556
  0
LINE
  5
100
330
1F
100
AcDbEntity
  8
0
  6
Continuous
 62
     7
370
    25
100
AcDbLine
 10
58.6701403815
 20
-96.6406905067
 30
0.0
 11
58.6701403815
 21
-170.9069702435
 31
0.0
  0
LINE
  5
101
330
1F
100
AcDbEntity
  8
0
  6
Continuous
 62
     7
370
    25
100
AcDbLine
 10
213.6701403815
 20
-170.9069702435
 30
0.0
 11
213.6701403815
 21
-96.6406905067
 31
0.0
  0
LINE
  5
102
330
1F
100
AcDbEntity
  8
0
  6
Continuous
 62
     7
370
    25
100
AcDbLine
 10
213.1956543084
 20
-95.3473200034
 30
0.0
 11
194.6446264546
 21
-73.4666204835
 31
0.0
  0
LINE
  5
103
330
1F
100
AcDbEntity
  8
0
  6
Continuous
 62
     7
370
    25
100
AcDbLine
 10
77.6956543084
 20
-73.4666204835
 30
0.0
 11
59.1446264546
 21
-95.3473200034
 31
0.0
  0
ARC
  5
104
330
1F
100
AcDbEntity
  8
0
  6
Continuous
 62
     7
370
    25
100
AcDbCircle
 10
76.1701403815
 20
-72.1732499802
 30
0.0
 40
1.999999999999993
100
AcDbArc
 50
319.7078522444
 51
0.0
  0
ARC
  5
105
330
1F
100
AcDbEntity
  8
0
  6
Continuous
 62
     7
370
    25
100
AcDbCircle
 10
196.1701403815
 20
-72.1732499802
 30
0.0
 40
1.999999999999972
100
AcDbArc
 50
180.0
 51
220.2921477556
  0
LINE
  5
106
330
1F
100
AcDbEntity
  8
0
  6
Continuous
 62
     7
370
    25
100
AcDbLine
 10
78.1701403815
 20
-10.9069702435
 30
0.0
 11
78.1701403815
 21
-72.1732499802
 31
0.0
  0
LINE
  5
107
330
1F
100
AcDbEntity
  8
0
  6
Continuous
 62
     7
370
    25
100
AcDbLine
 10
194.1701403815
 20
-72.1732499802
 30
0.0
 11
194.1701403815
 21
-10.9069702435
 31
0.0
  0
LINE
  5
108
330
1F
100
AcDbEntity
  8
0
  6
Continuous
 62
     7
370
    25
100
AcDbLine
 10
58.6701403815
 20
-170.9069702435
 30
0.0
 11
213.6701403815
 21
-170.9069702435
 31
0.0
  0
LINE
  5
109
330
1F
100
AcDbEntity
  8
0
  6
Continuous
 62
     7
370
    25
100
AcDbLine
 10
78.1701403815
 20
-10.9069702435
 30
0.0
 11
194.1701403815
 21
-10.9069702435
 31
0.0
  0
LINE
  5
10A
330
1F
100
AcDbEntity
  8
0
  6
Continuous
 62
     1
370
    25
100
AcDbLine
 10
59.1446264546
 20
-95.3473200034
 30
0.0
 11
213.1956543084
 21
-95.3473200034
 31
0.0
  0
LINE
  5
10B
330
1F
100
AcDbEntity
  8
0
  6
Continuous
 62
     1
370
    25
100
AcDbLine
 10
58.6701403815
 20
-96.6406905067
 30
0.0
 11
213.6701403815
 21
-96.6406905067
 31
0.0
  0
LINE
  5
10C
330
1F
100
AcDbEntity
  8
0
  6
Continuous
 62
     1
370
    25
100
AcDbLine
 10
77.6956543084
 20
-73.4666204835
 30
0.0
 11
194.6446264546
 21
-73.4666204835
 31
0.0
  0
LINE
  5
10D
330
1F
100
AcDbEntity
  8
0
  6
Continuous
 62
     1
370
    25
100
AcDbLine
 10
78.1701403815
 20
-72.1732499802
 30
0.0
 11
194.1701403815
 21
-72.1732499802
 31
0.0
  0
LINE
  5
10E
330
1F
100
AcDbEntity
  8
0
  6
Continuous
 62
     7
370
    25
100
AcDbLine
 10
385.3513813329
 20
-35.8278782211
 30
0.0
 11
332.8371913175
 21
-5.5120816151
 31
0.0
  0
LINE
  5
10F
330
1F
100
AcDbEntity
  8
0
  6
Continuous
 62
     7
370
    25
100
AcDbLine
 10
255.3434895382
 20
-139.7496552842
 30
0.0
 11
307.8576795536
 21
-170.0654518901
 31
0.0
  0
LINE
  5
110
330
1F
100
AcDbEntity
  8
0
  6
Continuous
 62
     7
370
    25
100
AcDbLine
 10
292.7471946774
 20
-139.0491439537
 30
0.0
 11
292.7471946774
 21
-153.876148432
 31
0.0
  0
LINE
  5
111
330
1F
100
AcDbEntity
  8
0
  6
Continuous
 62
     7
370
    25
100
AcDbLine
 10
306.7471946774
 20
-153.876148432
 30
0.0
 11
306.7471946774
 21
-139.0492850477
 31
0.0
  0
SPLINE
  5
112
330
1F
100
AcDbEntity
  8
0
  6
Continuous
 62
     7
370
    25
100
AcDbSpline
210
0.0
220
0.0
230
1.0
 70
     8
 71
     3
 72
    18
 73
    14
 74
     0
 42
0.00000001
 43
0.00000001
 40
0.0
 40
0.0
 40
0.0
 40
0.0
 40
0.0041870989859821
 40
0.1063396469058723
 40
0.2083672823345419
 40
0.3102255525031175
 40
0.4118674751936557
 40
0.5132475011006661
 40
0.6143268718202425
 40
0.7150798498140066
 40
0.8154998335418846
 40
0.9156040609171429
 40
1.0
 40
1.0
 40
1.0
 40
1.0
 10
400.1969706740761
 20
-57.06814477407136
 30
0.0
 10
400.1886345850158
 20
-57.03227387267462
 30
0.0
 10
399.9769231422701
 20
-56.12126149835647
 30
0.0
 10
399.4472159949708
 20
-54.4279797228517
 30
0.0
 10
398.5997093579423
 20
-52.00455320217888
 30
0.0
 10
397.6176307158388
 20
-49.70782824406264
 30
0.0
 10
396.5216153587629
 20
-47.52931857002006
 30
0.0
 10
395.3098242393053
 20
-45.47835167742227
 30
0.0
 10
393.9867348535434
 20
-43.55942234019596
 30
0.0
 10
392.556729595497
 20
-41.77605521512368
 30
0.0
 10
391.0206744901853
 20
-40.13736394318279
 30
0.0
 10
389.4788348869694
 20
-38.70530517370126
 30
0.0
 10
388.4033743796984
 20
-37.89098939098247
 30
0.0
 10
387.9114263169943
 20
-37.5184967991769
 30
0.0
  0
SPLINE
  5
113
330
1F
100
AcDbEntity
  8
0
  6
Continuous
 62
     7
370
    25
100
AcDbSpline
210
0.0
220
0.0
230
1.0
 70
     8
 71
     3
 72
    19
 73
    15
 74
     0
 42
0.00000001
 43
0.00000001
 40
0.0
 40
0.0
 40
0.0
 40
0.0
 40
0.047217890660343
 40
0.1411861323856233
 40
0.2352984868332475
 40
0.3296271735996269
 40
0.4242235936519832
 40
0.5191157085245834
 40
0.614308661696136
 40
0.7097880864764637
 40
0.8055251166576238
 40
0.9014819772703128
 40
0.9976171818958484
 40
1.0
 40
1.0
 40
1.0
 40
1.0
 10
310.5704186340815
 20
-171.4120072063896
 30
0.0
 10
310.9032572471646
 20
-171.5621342751087
 30
0.0
 10
311.8984774027584
 20
-172.0110289610512
 30
0.0
 10
313.6407274736565
 20
-172.5911203551799
 30
0.0
 10
315.7864172994898
 20
-173.1601292323283
 30
0.0
 10
318.0052738862317
 20
-173.5634248590523
 30
0.0
 10
320.2877304930192
 20
-173.8101509192025
 30
0.0
 10
322.6305669980251
 20
-173.8964473692147
 30
0.0
 10
325.0283135983445
 20
-173.8228094023996
 30
0.0
 10
327.4758727961781
 20
-173.587079894112
 30
0.0
 10
329.9666704640662
 20
-173.1956992104931
 30
0.0
 10
332.4977286011284
 20
-172.6260692848516
 30
0.0
 10
334.2201034635492
 20
-172.1812722423736
 30
0.0
 10
335.102250486536
 20
-171.8837784522392
 30
0.0
 10
335.1235866424865
 20
-171.8765830826067
 30
0.0
  0
LINE
  5
114
330
1F
100
AcDbEntity
  8
0
  6
Continuous
 62
     7
370
    25
100
AcDbLine
 10
339.7907445413
 20
-170.1941914404
 30
0.0
 11
357.1240485972
 21
-163.0570652344
 31
0.0
  0
LINE
  5
115
330
1F
100
AcDbEntity
  8
0
  6
Continuous
 62
     7
370
    25
100
AcDbLine
 10
403.9194574104
 20
-81.9962565015
 30
0.0
 11
401.4319945175
 21
-63.4168450917
 31
0.0
  0
LINE
  5
116
330
1F
100
AcDbEntity
  8
0
  6
Continuous
 62
     7
370
    25
100
AcDbLine
 10
436.2250686642
 20
-87.7126833774
 30
0.0
 11
402.0428860644
 21
-67.9797293903
 31
0.0
  0
LINE
  5
117
330
1F
100
AcDbEntity
  8
0
  6
Continuous
 62
     7
370
    25
100
AcDbLine
 10
344.0475995715
 20
-168.4413974264
 30
0.0
 11
378.2297821713
 21
-188.1743514135
 31
0.0
  0
LINE
  5
118
330
1F
100
AcDbEntity
  8
0
  6
Continuous
 62
     7
370
    25
100
AcDbLine
 10
394.5705711682
 20
-181.8643753767
 30
0.0
 11
394.5705711682
 21
-191.8357417802
 31
0.0
  0
LINE
  5
119
330
1F
100
AcDbEntity
  8
0
  6
Continuous
 62
     7
370
    25
100
AcDbLine
 10
408.5705711682
 20
-191.8357417802
 30
0.0
 11
408.5705711682
 21
-181.8645522832
 31
0.0
  0
LWPOLYLINE
  5
11A
330
1F
100
AcDbEntity
  8
0
  6
Continuous
 62
     7
370
    25
100
AcDbPolyline
 90
        3
 70
   128
 43
0.0
 10
385.3513813329
 20
-35.8278782211
 10
386.776341532
 20
-36.7133401789
 10
387.7923736203
 20
-37.4269146205
  0
ARC
  5
11B
330
1F
100
AcDbEntity
  8
0
  6
Continuous
 62
     7
370
    25
100
AcDbCircle
 10
320.8271247006
 20
-147.5929331439
 30
0.0
 40
25.9464950661906
100
AcDbArc
 50
240.009695011
 51
246.3740119131
  0
LWPOLYLINE
  5
11C
330
1F
100
AcDbEntity
  8
0
  6
Continuous
 62
     7
370
    25
100
AcDbPolyline
 90
      127
 70
   128
 43
0.0
 10
239.2895648859
 20
-104.2666827828
 10
239.3576865672
 20
-101.0730139774
 10
239.5618822497
 20
-97.8086335168
 10
239.901644271
 20
-94.4816571653
 10
240.3761279289
 20
-91.1003563101
 10
240.9841535824
 20
-87.673137398
 10
241.724209584
 20
-84.2085210352
 10
242.5944560378
 20
-80.7151208038
 10
243.5927293739
 20
-77.2016218474
 10
244.7165477277
 20
-73.6767592778
 10
245.9631171095
 20
-70.1492964588
 10
247.3293383516
 20
-66.6280032188
 10
248.8118148125
 20
-63.1216340476
 10
250.4068608224
 20
-59.6389063314
 10
252.1105108454
 20
-56.1884786801
 10
253.9185293391
 20
-52.7789294005
 10
255.8264212848
 20
-49.4187351692
 10
257.8294433624
 20
-46.1162499586
 10
259.9226157435
 20
-42.8796842673
 10
262.1007344717
 20
-39.7170847075
 10
264.3583844006
 20
-36.6363140001
 10
266.6899526569
 20
-33.6450314264
 10
269.0896425944
 20
-30.7506737863
 10
271.5514882059
 20
-27.9604369088
 10
274.0693689553
 20
-25.2812577625
 10
276.6370249943
 20
-22.7197972089
 10
279.2480727255
 20
-20.2824234424
 10
281.8960206728
 20
-17.9751961584
 10
284.5742856203
 20
-15.8038514874
 10
287.2762089794
 20
-13.7737877344
 10
289.995073343
 20
-11.8900519576
 10
292.7241191858
 20
-10.1573274211
 10
295.4565616699
 20
-8.579921951
 10
298.1856075127
 20
-7.161757226
 10
300.9044718763
 20
-5.9063590269
 10
303.6063952355
 20
-4.8168484715
 10
306.284660183
 20
-3.8959342547
 10
308.9326081303
 20
-3.1459059143
 10
311.5436558614
 20
-2.568628139
 10
314.1113119005
 20
-2.1655361322
 10
316.6291926498
 20
-1.9376320443
 10
319.0910382613
 20
-1.8854824806
 10
321.4907281989
 20
-2.0092170933
 10
323.8222964551
 20
-2.3085282585
 10
326.0799463841
 20
-2.7826718416
 10
328.2580651122
 20
-3.4304690469
 10
330.3512374933
 20
-4.2503093485
 10
332.3542595709
 20
-5.2401544941
 10
334.2621515166
 20
-6.3975435729
 10
336.0701700104
 20
-7.7195991332
 10
337.7738200334
 20
-9.2030343366
 10
339.3688660432
 20
-10.8441611294
 10
340.8513425042
 20
-12.6388994119
 10
342.2175637462
 20
-14.5827871819
 10
343.4641331281
 20
-16.670991628
 10
344.5879514818
 20
-18.8983211451
 10
345.586224818
 20
-21.259238241
 10
346.4564712718
 20
-23.7478733039
 10
347.1965272733
 20
-26.3580391948
 10
347.8045529269
 20
-29.08324663
 10
348.2790365848
 20
-31.9167203146
 10
348.618798606
 20
-34.8514157864
 10
348.8229942886
 20
-37.8800369302
 10
348.8911159698
 20
-40.9950541165
 10
348.8229942886
 20
-44.1887229219
 10
348.618798606
 20
-47.4531033825
 10
348.2790365848
 20
-50.780079734
 10
347.8045529269
 20
-54.1613805892
 10
347.1965272733
 20
-57.5885995013
 10
346.4564712718
 20
-61.0532158641
 10
345.586224818
 20
-64.5466160955
 10
344.5879514818
 20
-68.0601150519
 10
343.4641331281
 20
-71.5849776215
 10
342.2175637462
 20
-75.1124404405
 10
340.8513425042
 20
-78.6337336805
 10
339.3688660432
 20
-82.1401028517
 10
337.7738200334
 20
-85.6228305679
 10
336.0701700104
 20
-89.0732582192
 10
334.2621515166
 20
-92.4828074988
 10
332.3542595709
 20
-95.8430017301
 10
330.3512374933
 20
-99.1454869407
 10
328.2580651122
 20
-102.382052632
 10
326.0799463841
 20
-105.5446521918
 10
323.8222964551
 20
-108.6254228992
 10
321.4907281989
 20
-111.6167054729
 10
319.0910382613
 20
-114.511063113
 10
316.6291926498
 20
-117.3012999905
 10
314.1113119005
 20
-119.9804791368
 10
311.5436558614
 20
-122.5419396904
 10
308.9326081303
 20
-124.9793134569
 10
306.284660183
 20
-127.2865407409
 10
303.6063952355
 20
-129.4578854119
 10
300.9044718763
 20
-131.4879491649
 10
298.1856075127
 20
-133.3716849417
 10
295.4565616699
 20
-135.1044094782
 10
292.7241191858
 20
-136.6818149483
 10
289.995073343
 20
-138.0999796733
 10
287.2762089794
 20
-139.3553778724
 10
284.5742856203
 20
-140.4448884278
 10
281.8960206728
 20
-141.3658026446
 10
279.2480727255
 20
-142.115830985
 10
276.6370249943
 20
-142.6931087603
 10
274.0693689553
 20
-143.0962007671
 10
271.5514882059
 20
-143.324104855
 10
269.0896425944
 20
-143.3762544187
 10
266.6899526569
 20
-143.252519806
 10
264.3583844006
 20
-142.9532086408
 10
262.1007344717
 20
-142.4790650577
 10
259.9226157435
 20
-141.8312678524
 10
257.8294433624
 20
-141.0114275508
 10
255.8264212848
 20
-140.0215824052
 10
253.9185293391
 20
-138.8641933264
 10
252.1105108454
 20
-137.5421377661
 10
250.4068608224
 20
-136.0587025627
 10
248.8118148125
 20
-134.4175757699
 10
247.3293383516
 20
-132.6228374874
 10
245.9631171095
 20
-130.6789497174
 10
244.7165477277
 20
-128.5907452713
 10
243.5927293739
 20
-126.3634157542
 10
242.5944560378
 20
-124.0024986583
 10
241.724209584
 20
-121.5138635954
 10
240.9841535824
 20
-118.9036977045
 10
240.3761279289
 20
-116.1784902693
 10
239.901644271
 20
-113.3450165847
 10
239.5618822497
 20
-110.4103211129
 10
239.3576865672
 20
-107.3816999691
 10
239.2895648859
 20
-104.2666827828
  0
SPLINE
  5
11D
330
1F
100
AcDbEntity
  8
0
  6
Continuous
 62
     7
370
    25
100
AcDbSpline
210
0.0
220
0.0
230
1.0
 70
     8
 71
     3
 72
    12
 73
     8
 74
     0
 42
0.00000001
 43
0.00000001
 40
0.0
 40
0.0
 40
0.0
 40
0.0
 40
0.2111034041540958
 40
0.4283439998870204
 40
0.6394430814636444
 40
0.8566347182974944
 40
1.0
 40
1.0
 40
1.0
 40
1.0
 10
294.7974472090681
 20
-136.3209854267068
 30
0.0
 10
294.5370163662878
 20
-136.4852008165953
 30
0.0
 10
294.0085834433917
 20
-136.8184056610633
 30
0.0
 10
293.4159498179496
 20
-137.3856546234449
 30
0.0
 10
292.9950260388071
 20
-137.9916083044963
 30
0.0
 10
292.7691582836979
 20
-138.5505530068621
 30
0.0
 10
292.7685355540621
 20
-138.9075520331287
 30
0.0
 10
292.7682879431993
 20
-139.0495026193939
 30
0.0
  0
SPLINE
  5
11E
330
1F
100
AcDbEntity
  8
0
  6
Continuous
 62
     7
370
    25
100
AcDbSpline
210
0.0
220
0.0
230
1.0
 70
     8
 71
     3
 72
    21
 73
    17
 74
     0
 42
0.00000001
 43
0.00000001
 40
0.0
 40
0.0
 40
0.0
 40
0.0
 40
0.0486548350329767
 40
0.1193196911495321
 40
0.1920391865045518
 40
0.262595077040122
 40
0.3352116289485988
 40
0.4055200293226368
 40
0.4778683183402714
 40
0.5481775762857292
 40
0.620511869759497
 40
0.6910680868709633
 40
0.7636632812979068
 40
0.8343281560354417
 40
0.907053164966938
 40
1.0
 40
1.0
 40
1.0
 40
1.0
 10
306.7246955607101
 20
-139.0496641966532
 30
0.0
 10
306.7247738630936
 20
-138.8853178988718
 30
0.0
 10
306.7249658895634
 20
-138.482279855899
 30
0.0
 10
306.4967499743606
 20
-137.8465609736062
 30
0.0
 10
306.0797624461949
 20
-137.1774925514069
 30
0.0
 10
305.4703933336605
 20
-136.5647135733191
 30
0.0
 10
304.7077972116194
 20
-136.0389853532185
 30
0.0
 10
303.7976509681353
 20
-135.6058415141658
 30
0.0
 10
302.7835009228961
 20
-135.2842672194411
 30
0.0
 10
301.6745832038519
 20
-135.0750832030277
 30
0.0
 10
300.5206457429591
 20
-134.9848928632871
 30
0.0
 10
299.3332527519528
 20
-135.0116216886067
 30
0.0
 10
298.1653071574204
 20
-135.1504347725161
 30
0.0
 10
297.0338059683382
 20
-135.3984278165458
 30
0.0
 10
295.8672732662125
 20
-135.7694285253999
 30
0.0
 10
295.1819397230384
 20
-136.1227574080818
 30
0.0
 10
294.7974472090681
 20
-136.3209854267068
 30
0.0
  0
LWPOLYLINE
  5
11F
330
1F
100
AcDbEntity
  8
0
  6
Continuous
 62
     7
370
    25
100
AcDbPolyline
 90
      114
 70
   128
 43
0.0
 10
249.8961666037
 20
-98.1436219441
 10
249.964467433
 20
-95.2680013663
 10
250.169158807
 20
-92.322410708
 10
250.5096080364
 20
-89.315954621
 10
250.9847628121
 20
-86.2579258889
 10
251.5931544579
 20
-83.1577767031
 10
252.3329024701
 20
-80.0250894472
 10
253.20172033
 20
-76.869547078
 10
254.1969225714
 20
-73.700903196
 10
255.3154330812
 20
-70.5289518979
 10
256.5537946075
 20
-67.3634975035
 10
257.9081794459
 20
-64.2143242507
 10
259.3744012703
 20
-61.0911660538
 10
260.9479280731
 20
-58.0036764157
 10
262.6238961732
 20
-54.9613985898
 10
264.3971252493
 20
-51.9737360828
 10
266.2621343518
 20
-49.049923588
 10
268.2131588445
 20
-46.1989984425
 10
270.2441682225
 20
-43.4297726924
 10
272.3488847523
 20
-40.7508058558
 10
274.5208028756
 20
-38.1703784657
 10
276.753209318
 20
-35.6964664754
 10
279.0392038391
 20
-33.3367166049
 10
281.3717205608
 20
-31.0984227059
 10
283.7435498077
 20
-28.9885032165
 10
286.1473603914
 20
-27.0134797771
 10
288.5757222712
 20
-25.1794570718
 10
291.0211295198
 20
-23.4921039598
 10
293.4760235233
 20
-21.9566359528
 10
295.9328163452
 20
-20.5777990944
 10
298.3839141797
 20
-19.3598552903
 10
300.8217408237
 20
-18.3065691351
 10
303.2387610948
 20
-17.4211962758
 10
305.627504122
 20
-16.7064733493
 10
307.9805864373
 20
-16.1646095232
 10
310.2907347982
 20
-15.7972796674
 10
312.5508086686
 20
-15.6056191776
 10
314.7538222895
 20
-15.5902204653
 10
316.8929662722
 20
-15.7511311271
 10
318.9616286452
 20
-16.0878537972
 10
320.9534152916
 20
-16.5993476854
 10
322.862169713
 20
-17.2840317931
 10
324.681992059
 20
-18.1397898012
 10
326.4072573629
 20
-19.1639766106
 10
328.0326329286
 20
-20.3534265186
 10
329.5530948134
 20
-21.7044630037
 10
330.9639433566
 20
-23.2129100896
 10
332.2608177063
 20
-24.8741052528
 10
333.4397092981
 20
-26.6829138341
 10
334.4969742459
 20
-28.6337449101
 10
335.4293446041
 20
-30.7205685735
 10
336.2339384694
 20
-32.936934572
 10
336.9082688884
 20
-35.2759922454
 10
337.4502515442
 20
-37.7305117004
 10
337.8582111997
 20
-40.2929061581
 10
338.1308868748
 20
-42.955255404
 10
338.2674357448
 20
-45.7093302691
 10
338.2674357448
 20
-48.546618066
 10
338.1308868748
 20
-51.4583489006
 10
337.8582111997
 20
-54.4355227798
 10
337.4502515442
 20
-57.4689374297
 10
336.9082688884
 20
-60.5492167395
 10
336.2339384694
 20
-63.6668397424
 10
335.4293446041
 20
-66.8121700443
 10
334.4969742459
 20
-69.9754856095
 10
333.4397092981
 20
-73.1470088109
 10
332.2608177063
 20
-76.316936652
 10
330.9639433566
 20
-79.4754710676
 10
329.5530948134
 20
-82.6128492087
 10
328.0326329286
 20
-85.7193736193
 10
326.4072573629
 20
-88.7854422105
 10
324.681992059
 20
-91.80157794
 10
322.862169713
 20
-94.7584581051
 10
320.9534152916
 20
-97.6469431586
 10
318.9616286452
 20
-100.4581049589
 10
316.8929662722
 20
-103.1832543658
 10
314.7538222895
 20
-105.8139680987
 10
312.5508086686
 20
-108.3421147723
 10
310.2907347982
 20
-110.75988003
 10
307.9805864373
 20
-113.0597906979
 10
305.627504122
 20
-115.2347378841
 10
303.2387610948
 20
-117.2779989514
 10
300.8217408237
 20
-119.183258297
 10
298.3839141797
 20
-120.9446268733
 10
295.9328163452
 20
-122.5566603911
 10
293.4760235233
 20
-124.0143761472
 10
291.0211295198
 20
-125.3132684256
 10
288.5757222712
 20
-126.4493224248
 10
286.1473603914
 20
-127.419026667
 10
283.7435498077
 20
-128.2193838519
 10
281.3717205608
 20
-128.8479201213
 10
279.0392038391
 20
-129.3026927057
 10
276.753209318
 20
-129.5822959291
 10
274.5208028756
 20
-129.6858655539
 10
272.3488847523
 20
-129.6130814523
 10
270.2441682225
 20
-129.3641685958
 10
268.2131588445
 20
-128.9398963598
 10
266.2621343518
 20
-128.3415761455
 10
264.3971252493
 20
-127.5710573264
 10
262.6238961732
 20
-126.6307215319
 10
260.9479280731
 20
-125.5234752862
 10
259.3744012703
 20
-124.2527410239
 10
257.9081794459
 20
-122.8224465118
 10
256.5537946075
 20
-121.2370127083
 10
255.3154330812
 20
-119.5013400983
 10
254.1969225714
 20
-117.6207935466
 10
253.20172033
 20
-115.6011857146
 10
252.3329024701
 20
-113.4487590945
 10
251.5931544579
 20
-111.1701667136
 10
250.9847628121
 20
-108.7724515703
 10
250.5096080364
 20
-106.2630248649
 10
250.169158807
 20
-103.6496430913
 10
249.964467433
 20
-100.9403840629
 10
249.8961666037
 20
-98.1436219441
  0
LWPOLYLINE
  5
120
330
1F
100
AcDbEntity
  8
0
  6
Continuous
 62
     7
370
    25
100
AcDbPolyline
 90
       38
 70
   128
 43
0.0
 10
294.7974472091
 20
-151.0187200407
 10
295.7051562029
 20
-150.5769138047
 10
296.7291472844
 20
-150.230020542
 10
297.8399620944
 20
-149.9880197402
 10
299.0056445133
 20
-149.8578733218
 10
300.1926599804
 20
-149.8433253623
 10
301.3668602217
 20
-149.9447943799
 10
302.4944656342
 20
-150.1593612959
 10
303.5430370632
 20
-150.4808534106
 10
304.4824090179
 20
-150.9000219812
 10
305.2855574773
 20
-151.4048082913
 10
305.9293773227
 20
-151.9806905576
 10
306.3953470293
 20
-152.6111016959
 10
306.6700614969
 20
-153.2779059256
 10
306.7456176906
 20
-153.9619205029
 10
306.6198419962
 20
-154.6434675739
 10
306.2963527514
 20
-155.3029402703
 10
305.7844561529
 20
-155.9213667633
 10
305.0988785337
 20
-156.4809560485
 10
304.2593427137
 20
-156.9656097612
 10
303.29000061
 20
-157.3613852965
 10
302.21873843
 20
-157.6568969127
 10
301.0763744362
 20
-157.8436432787
 10
299.8957723607
 20
-157.9162520415
 10
298.7108959758
 20
-157.8726343794
 10
297.5558320177
 20
-157.7140450929
 10
296.4638095736
 20
-157.4450465071
 10
295.4662441409
 20
-157.0733772215
 10
294.5918338607
 20
-156.6097294849
 10
293.865733925
 20
-156.0674415984
 10
293.3088329067
 20
-155.4621141972
 10
292.9371518343
 20
-154.8111614484
 10
292.7613832954
 20
-154.1333100776
 10
292.786583831
 20
-153.4480606344
 10
293.0120284675
 20
-152.7751264978
 10
293.4312315732
 20
-152.1338667576
 10
294.0321334379
 20
-151.542729289
 10
294.7974472091
 20
-151.0187200407
  0
LWPOLYLINE
  5
121
330
1F
100
AcDbEntity
  8
0
  6
Continuous
 62
     7
370
    25
100
AcDbPolyline
 90
       32
 70
   128
 43
0.0
 10
296.2116607714
 20
-151.8351281525
 10
296.9957311012
 20
-151.4660535958
 10
297.892446673
 20
-151.1956486048
 10
298.8650958461
 20
-151.0349835917
 10
299.8738582489
 20
-150.990636201
 10
300.8774350303
 20
-151.0644220201
 10
301.8347396388
 20
-151.2533202489
 10
302.7065799113
 20
-151.5495973716
 10
303.4572626046
 20
-151.9411237681
 10
304.0560546811
 20
-152.4118703017
 10
304.4784415227
 20
-152.942564554
 10
304.7071305626
 20
-153.51147984
 10
304.7327592446
 20
-154.0953247009
 10
304.5542783274
 20
-154.6701964597
 10
304.1789948408
 20
-155.2125597989
 10
303.6222729348
 20
-155.7002102998
 10
302.9069048696
 20
-156.1131834934
 10
302.0621778979
 20
-156.4345722088
 10
301.1226752411
 20
-156.6512187542
 10
300.1268602485
 20
-156.7542535945
 10
299.1155017028
 20
-156.7394584713
 10
298.1300047416
 20
-156.6074390987
 10
297.2107157265
 20
-156.3636003653
 10
296.3952704576
 20
-156.0179250574
 10
295.7170533601
 20
-155.5845651629
 10
295.2038307217
 20
-155.0812624867
 10
294.8766139374
 20
-154.5286222995
 10
294.7487993009
 20
-153.9492697555
 10
294.8256195584
 20
-153.3669236159
 10
295.1039296795
 20
-152.8054252001
 10
295.5723356152
 20
-152.2877623192
 10
296.2116607714
 20
-151.8351281525
  0
ARC
  5
122
330
1F
100
AcDbEntity
  8
0
  6
Continuous
 62
     7
370
    25
100
AcDbCircle
 10
339.5191824108
 20
-71.9706665972
 30
0.0
 40
62.4787845513551
100
AcDbArc
 50
357.2819715085
 51
13.6911127716
  0
ARC
  5
123
330
1F
100
AcDbEntity
  8
0
  6
Continuous
 62
     7
370
    25
100
AcDbCircle
 10
315.9824506309
 20
-111.7353817632
 30
0.0
 40
63.11249929019669
100
AcDbArc
 50
287.7314724284
 51
304.3879987215
  0
ARC
  5
124
330
1F
100
AcDbEntity
  8
0
  6
Continuous
 62
     7
370
    25
100
AcDbCircle
 10
355.0495437984
 20
-88.4017580515
 30
0.0
 40
49.2879184644593
100
AcDbArc
 50
0.7233490989
 51
7.4673320714
  0
ARC
  5
125
330
1F
100
AcDbEntity
  8
0
  6
Continuous
 62
     7
370
    25
100
AcDbCircle
 10
338.0832223097
 20
-117.1802097079
 30
0.0
 40
49.67130900940818
100
AcDbArc
 50
292.5405075827
 51
300.8522596946
  0
LWPOLYLINE
  5
126
330
1F
100
AcDbEntity
  8
0
  6
Continuous
 62
     7
370
    25
100
AcDbPolyline
 90
       43
 70
   128
 43
0.0
 10
436.2250686642
 20
-87.7126833774
 10
436.4356299309
 20
-87.8360157679
 10
438.0457822845
 20
-88.9048835262
 10
439.5535591559
 20
-90.1366526946
 10
440.9539518619
 20
-91.5272314598
 10
442.2423084387
 20
-93.072000459
 10
443.4143490955
 20
-94.765828125
 10
444.466180431
 20
-96.6030877324
 10
445.3943083672
 20
-98.5776760898
 10
446.1956497566
 20
-100.6830338132
 10
446.8675426237
 20
-102.9121671158
 10
447.4077550078
 20
-105.2576710412
 10
447.8144923777
 20
-107.711754061
 10
448.0864035929
 20
-110.2662639584
 10
448.2225853917
 20
-112.9127149083
 10
448.2225853917
 20
-115.6423156668
 10
448.0864035929
 20
-118.4459987747
 10
447.8144923777
 20
-121.3144506787
 10
447.4077550078
 20
-124.23814267
 10
446.8675426237
 20
-127.2073625379
 10
446.1956497566
 20
-130.2122468325
 10
445.3943083672
 20
-133.2428136304
 10
444.466180431
 20
-136.2889956935
 10
443.4143490955
 20
-139.3406739113
 10
442.2423084387
 20
-142.3877109156
 10
440.9539518619
 20
-145.4199847561
 10
439.5535591559
 20
-148.4274225238
 10
438.0457822845
 20
-151.400033813
 10
436.4356299309
 20
-154.3279439079
 10
434.7284508593
 20
-157.2014265857
 10
432.9299161468
 20
-160.0109364258
 10
431.0460003449
 20
-162.7471405192
 10
429.0829616325
 20
-165.4009494709
 10
427.0473210266
 20
-167.9635475945
 10
424.9458407207
 20
-170.4264221968
 10
422.7855016211
 20
-172.7813918561
 10
420.5734801569
 20
-175.0206335999
 10
418.3171244411
 20
-177.1367088923
 10
416.0239298603
 20
-179.1225883441
 10
413.7015141764
 20
-180.9716750634
 10
411.3575922207
 20
-182.6778265701
 10
408.9999502663
 20
-184.2353752004
 10
408.5705711682
 20
-184.5020983286
  0
ARC
  5
127
330
1F
100
AcDbEntity
  8
0
  6
Continuous
 62
     7
370
    25
100
AcDbCircle
 10
389.1561531055
 20
-168.0280071404
 30
0.0
 40
22.91856822235894
100
AcDbArc
 50
241.5268069532
 51
283.6650764282
  0
SPLINE
  5
128
330
1F
100
AcDbEntity
  8
0
  6
Continuous
 62
     7
370
    25
100
AcDbSpline
210
0.0
220
0.0
230
1.0
 70
     8
 71
     3
 72
    12
 73
     8
 74
     0
 42
0.00000001
 43
0.00000001
 40
0.0
 40
0.0
 40
0.0
 40
0.0
 40
0.2106390572230626
 40
0.4274136420781178
 40
0.6380450539837572
 40
0.8547330216538576
 40
1.0
 40
1.0
 40
1.0
 40
1.0
 10
396.6208236999311
 20
-179.1798236461697
 30
0.0
 10
396.3608347724636
 20
-179.3432711259238
 30
0.0
 10
395.8332839191042
 20
-179.6749270093634
 30
0.0
 10
395.2413814826239
 20
-180.2335759499161
 30
0.0
 10
394.8204331761656
 20
-180.8270243393478
 30
0.0
 10
394.5933893572063
 20
-181.3743674783402
 30
0.0
 10
394.5919090433496
 20
-181.7243029921996
 30
0.0
 10
394.5913149342668
 20
-181.8647460922977
 30
0.0
  0
SPLINE
  5
129
330
1F
100
AcDbEntity
  8
0
  6
Continuous
 62
     7
370
    25
100
AcDbSpline
210
0.0
220
0.0
230
1.0
 70
     8
 71
     3
 72
    21
 73
    17
 74
     0
 42
0.00000001
 43
0.00000001
 40
0.0
 40
0.0
 40
0.0
 40
0.0
 40
0.046378247564101
 40
0.1171147405803846
 40
0.1899116188457363
 40
0.2604625939268553
 40
0.3330857800696857
 40
0.4031914623894146
 40
0.4753324489765164
 40
0.5454299956367439
 40
0.6175357544528378
 40
0.6880720605057452
 40
0.7606406078910409
 40
0.8313811329120933
 40
0.9041921017231139
 40
1.0
 40
1.0
 40
1.0
 40
1.0
 10
408.5471856678251
 20
-181.8648754703975
 30
0.0
 10
408.5483874959693
 20
-181.7051081493136
 30
0.0
 10
408.5514223625009
 20
-181.3016623671913
 30
0.0
 10
408.330172552101
 20
-180.6600983859226
 30
0.0
 10
407.9190540161358
 20
-179.9777910746008
 30
0.0
 10
407.314513040421
 20
-179.3550618967325
 30
0.0
 10
406.556915405704
 20
-178.8243746942847
 30
0.0
 10
405.6521231374371
 20
-178.3911595040992
 30
0.0
 10
404.6440915912936
 20
-178.0738849905103
 30
0.0
 10
403.5411799100816
 20
-177.8722126693678
 30
0.0
 10
402.3916648057422
 20
-177.7912833873079
 30
0.0
 10
401.206561896447
 20
-177.8280647760287
 30
0.0
 10
400.0377440252486
 20
-177.9765197928731
 30
0.0
 10
398.9031603941376
 20
-178.2325168217801
 30
0.0
 10
397.7172089927663
 20
-178.614107080769
 30
0.0
 10
397.0180693057733
 20
-178.9748515243926
 30
0.0
 10
396.6208236999311
 20
-179.1798236461697
 30
0.0
  0
LWPOLYLINE
  5
12A
330
1F
100
AcDbEntity
  8
0
  6
Continuous
 62
     7
370
    25
100
AcDbPolyline
 90
       38
 70
   128
 43
0.0
 10
396.6208236999
 20
-188.9783133888
 10
397.5285326938
 20
-188.5365071528
 10
398.5525237753
 20
-188.1896138901
 10
399.6633385853
 20
-187.9476130884
 10
400.8290210042
 20
-187.81746667
 10
402.0160364712
 20
-187.8029187104
 10
403.1902367125
 20
-187.9043877281
 10
404.317842125
 20
-188.118954644
 10
405.3664135541
 20
-188.4404467587
 10
406.3057855087
 20
-188.8596153294
 10
407.1089339682
 20
-189.3644016394
 10
407.7527538136
 20
-189.9402839057
 10
408.2187235201
 20
-190.5706950441
 10
408.4934379878
 20
-191.2374992737
 10
408.5689941815
 20
-191.9215138511
 10
408.443218487
 20
-192.6030609221
 10
408.1197292423
 20
-193.2625336185
 10
407.6078326437
 20
-193.8809601114
 10
406.9222550245
 20
-194.4405493967
 10
406.0827192046
 20
-194.9252031094
 10
405.1133771009
 20
-195.3209786446
 10
404.0421149209
 20
-195.6164902608
 10
402.899750927
 20
-195.8032366268
 10
401.7191488516
 20
-195.8758453897
 10
400.5342724667
 20
-195.8322277275
 10
399.3792085086
 20
-195.673638441
 10
398.2871860645
 20
-195.4046398552
 10
397.2896206317
 20
-195.0329705697
 10
396.4152103516
 20
-194.569322833
 10
395.6891104158
 20
-194.0270349465
 10
395.1322093976
 20
-193.4217075453
 10
394.7605283252
 20
-192.7707547966
 10
394.5847597863
 20
-192.0929034257
 10
394.6099603219
 20
-191.4076539826
 10
394.8354049584
 20
-190.7347198459
 10
395.254608064
 20
-190.0934601057
 10
395.8555099287
 20
-189.5023226371
 10
396.6208236999
 20
-188.9783133888
  0
LWPOLYLINE
  5
12B
330
1F
100
AcDbEntity
  8
0
  6
Continuous
 62
     7
370
    25
100
AcDbPolyline
 90
       32
 70
   128
 43
0.0
 10
398.0350372623
 20
-189.7947215006
 10
398.8191075921
 20
-189.4256469439
 10
399.7158231639
 20
-189.155241953
 10
400.6884723369
 20
-188.9945769399
 10
401.6972347398
 20
-188.9502295492
 10
402.7008115212
 20
-189.0240153683
 10
403.6581161297
 20
-189.212913597
 10
404.5299564022
 20
-189.5091907197
 10
405.2806390955
 20
-189.9007171163
 10
405.879431172
 20
-190.3714636499
 10
406.3018180136
 20
-190.9021579022
 10
406.5305070535
 20
-191.4710731881
 10
406.5561357355
 20
-192.0549180491
 10
406.3776548183
 20
-192.6297898079
 10
406.0023713317
 20
-193.1721531471
 10
405.4456494257
 20
-193.6598036479
 10
404.7302813605
 20
-194.0727768416
 10
403.8855543888
 20
-194.394165557
 10
402.946051732
 20
-194.6108121023
 10
401.9502367394
 20
-194.7138469427
 10
400.9388781936
 20
-194.6990518195
 10
399.9533812325
 20
-194.5670324468
 10
399.0340922173
 20
-194.3231937134
 10
398.2186469485
 20
-193.9775184056
 10
397.540429851
 20
-193.5441585111
 10
397.0272072125
 20
-193.0408558348
 10
396.6999904283
 20
-192.4882156476
 10
396.5721757918
 20
-191.9088631036
 10
396.6489960492
 20
-191.326516964
 10
396.9273061704
 20
-190.7650185483
 10
397.3957121061
 20
-190.2473556674
 10
398.0350372623
 20
-189.7947215006
  0
LWPOLYLINE
  5
12C
330
1F
100
AcDbEntity
  8
0
  6
Continuous
 62
     1
370
    25
100
AcDbPolyline
 90
       62
 70
   128
 43
0.0
 10
387.7923736203
 20
-37.4269146205
 10
388.5843600258
 20
-38.0353957392
 10
390.2880100488
 20
-39.5188309426
 10
391.8830560586
 20
-41.1599577354
 10
393.3655325196
 20
-42.9546960179
 10
394.7317537616
 20
-44.8985837878
 10
395.9783231435
 20
-46.986788234
 10
397.1021414972
 20
-49.2141177511
 10
398.1004148334
 20
-51.575034847
 10
398.9706612871
 20
-54.0636699099
 10
399.7107172887
 20
-56.6738358008
 10
400.3187429422
 20
-59.399043236
 10
400.7932266002
 20
-62.2325169206
 10
401.1329886214
 20
-65.1672123924
 10
401.3371843039
 20
-68.1958335362
 10
401.4053059852
 20
-71.3108507225
 10
401.3371843039
 20
-74.5045195279
 10
401.1329886214
 20
-77.7688999885
 10
400.7932266002
 20
-81.09587634
 10
400.3187429422
 20
-84.4771771952
 10
399.7107172887
 20
-87.9043961073
 10
398.9706612871
 20
-91.3690124701
 10
398.1004148334
 20
-94.8624127015
 10
397.1021414972
 20
-98.3759116579
 10
395.9783231435
 20
-101.9007742275
 10
394.7317537616
 20
-105.4282370465
 10
393.3655325196
 20
-108.9495302865
 10
391.8830560586
 20
-112.4558994577
 10
390.2880100488
 20
-115.9386271739
 10
388.5843600258
 20
-119.3890548252
 10
386.776341532
 20
-122.7986041048
 10
384.8684495863
 20
-126.1587983361
 10
382.8654275087
 20
-129.4612835467
 10
380.7722551276
 20
-132.697849238
 10
378.5941363994
 20
-135.8604487978
 10
376.3364864705
 20
-138.9412195052
 10
374.0049182142
 20
-141.9325020789
 10
371.6052282767
 20
-144.826859719
 10
369.1433826652
 20
-147.6170965965
 10
366.6255019158
 20
-150.2962757428
 10
364.0578458768
 20
-152.8577362964
 10
361.4467981456
 20
-155.2951100628
 10
358.7988501984
 20
-157.6023373468
 10
356.1205852508
 20
-159.7736820179
 10
353.4186618917
 20
-161.8037457709
 10
350.6997975281
 20
-163.6874815477
 10
347.9707516853
 20
-165.4202060842
 10
345.2383092012
 20
-166.9976115543
 10
342.5092633584
 20
-168.4157762793
 10
339.7903989948
 20
-169.6711744784
 10
337.0884756356
 20
-170.7606850338
 10
334.4102106881
 20
-171.6815992506
 10
331.7622627409
 20
-172.431627591
 10
329.1512150097
 20
-173.0089053663
 10
326.5835589707
 20
-173.4119973731
 10
324.0656782213
 20
-173.639901461
 10
321.6038326098
 20
-173.6920510247
 10
319.2041426723
 20
-173.568316412
 10
316.872574416
 20
-173.2690052468
 10
314.6149244871
 20
-172.7948616637
 10
312.4368057589
 20
-172.1470644584
 10
310.4286871266
 20
-171.3646201316
  0
ARC
  5
12D
330
1F
100
AcDbEntity
  8
0
  6
Continuous
 62
     1
370
    25
100
AcDbCircle
 10
402.9555143574
 20
-135.4773956332
 30
0.0
 40
101.2287410382508
100
AcDbArc
 50
130.4393683026
 51
169.5660082301
  0
LWPOLYLINE
  5
12E
330
1F
100
AcDbEntity
  8
0
  6
Continuous
 62
     1
370
    25
100
AcDbPolyline
 90
       31
 70
   128
 43
0.0
 10
401.927678527
 20
-74.9334577697
 10
401.8296034737
 20
-76.8594671048
 10
401.5548698503
 20
-80.1631955215
 10
401.1436371359
 20
-83.5258106301
 10
400.59694414
 20
-86.9388181729
 10
399.9161718566
 20
-90.3935965967
 10
399.1030399754
 20
-93.8814188313
 10
398.1596025383
 20
-97.3934743352
 10
397.0882427501
 20
-100.9208913512
 10
395.8916669585
 20
-104.4547593178
 10
394.5728978178
 20
-107.986151378
 10
393.1352666535
 20
-111.5061469288
 10
391.5824050465
 20
-115.005854156
 10
389.91823566
 20
-118.4764324954
 10
388.1469623304
 20
-121.909114965
 10
386.2730594478
 20
-125.2952303108
 10
384.3012606535
 20
-128.6262249117
 10
382.2365468824
 20
-131.8936843861
 10
380.0841337807
 20
-135.089354848
 10
377.8494585307
 20
-138.2051637563
 10
375.538166116
 20
-141.2332403073
 10
373.1560950618
 20
-144.165935317
 10
370.7092626863
 20
-146.995840543
 10
368.2038499005
 20
-149.7158073993
 10
365.6461855946
 20
-152.3189650136
 10
363.0427306505
 20
-154.7987375837
 10
360.4000616214
 20
-157.1488609889
 10
357.7248541185
 20
-159.3633986135
 10
355.0238659483
 20
-161.4367563434
 10
352.3039200412
 20
-163.3636966969
 10
351.6280217321
 20
-163.8178243665
  0
LWPOLYLINE
  5
12F
330
1F
100
AcDbEntity
  8
0
  6
Continuous
 62
     1
370
    25
100
AcDbPolyline
 90
       29
 70
   128
 43
0.0
 10
404.3335344088
 20
-87.7795233138
 10
404.3216054519
 20
-89.922771157
 10
404.1843095779
 20
-92.7493906199
 10
403.910173913
 20
-95.6413087391
 10
403.5001091082
 20
-98.5889188533
 10
402.9554773577
 20
-101.5824292984
 10
402.2780878733
 20
-104.6118959335
 10
401.4701908748
 20
-107.6672551752
 10
400.5344701147
 20
-110.7383574273
 10
399.4740339634
 20
-113.8150007971
 10
398.292405083
 20
-116.8869649846
 10
396.9935087259
 20
-119.9440452337
 10
395.5816596952
 20
-122.9760862314
 10
394.0615480113
 20
-125.9730158423
 10
392.4382233324
 20
-128.9248785676
 10
390.7170781798
 20
-131.8218686163
 10
388.9038300247
 20
-134.6543624787
 10
387.0045022951
 20
-137.412950895
 10
385.0254043665
 20
-140.0884701121
 10
382.9731106035
 20
-142.672032324
 10
380.8544385194
 20
-145.155055197
 10
378.6764261298
 20
-147.5292903787
 10
376.4463085729
 20
-149.7868508987
 10
374.171494075
 20
-151.920237368
 10
371.8595393409
 20
-153.9223628912
 10
369.5181244519
 20
-155.7865766087
 10
367.1550273527
 20
-157.50668579
 10
364.7780980142
 20
-159.0769764054
 10
363.5559666019
 20
-159.8226561309
  0
ARC
  5
130
330
1F
100
AcDbEntity
  8
0
  6
Continuous
 62
     1
370
    25
100
AcDbCircle
 10
404.2931378016
 20
-136.249589211
 30
0.0
 40
101.4148091018193
100
AcDbArc
 50
131.6238189924
 51
168.3815575403
  0
LWPOLYLINE
  5
131
330
1F
100
AcDbEntity
  8
0
  6
Continuous
 62
     1
370
    25
100
AcDbPolyline
 90
       39
 70
   128
 43
0.0
 10
403.2155033002
 20
-76.738267301
 10
403.5457407637
 20
-77.9030232367
 10
404.0859531478
 20
-80.248527162
 10
404.4926905178
 20
-82.7026101819
 10
404.764601733
 20
-85.2571200792
 10
404.9007835317
 20
-87.9035710291
 10
404.9007835317
 20
-90.6331717877
 10
404.764601733
 20
-93.4368548956
 10
404.4926905178
 20
-96.3053067996
 10
404.0859531478
 20
-99.2289987909
 10
403.5457407637
 20
-102.1982186587
 10
402.8738478967
 20
-105.2031029533
 10
402.0725065073
 20
-108.2336697513
 10
401.144378571
 20
-111.2798518143
 10
400.0925472356
 20
-114.3315300321
 10
398.9205065788
 20
-117.3785670365
 10
397.6321500019
 20
-120.4108408769
 10
396.2317572959
 20
-123.4182786446
 10
394.7239804246
 20
-126.3908899338
 10
393.113828071
 20
-129.3188000288
 10
391.4066489994
 20
-132.1922827065
 10
389.6081142869
 20
-135.0017925467
 10
387.724198485
 20
-137.73799664
 10
385.7611597725
 20
-140.3918055917
 10
383.7255191667
 20
-142.9544037154
 10
381.6240388608
 20
-145.4172783177
 10
379.4636997612
 20
-147.7722479769
 10
377.251678297
 20
-150.0114897207
 10
374.9953225812
 20
-152.1275650131
 10
372.7021280004
 20
-154.1134444649
 10
370.3797123165
 20
-155.9625311842
 10
368.0357903608
 20
-157.6686826909
 10
365.6781484064
 20
-159.2262313213
 10
363.3146183026
 20
-160.6300030554
 10
360.9530514589
 20
-161.8753347047
 10
358.6012927628
 20
-162.9580894027
 10
356.2671545201
 20
-163.8746703473
 10
353.9583905034
 20
-164.6220327486
 10
352.2187088356
 20
-165.0768780092
  0
ENDSEC
  0
SECTION
  2
OBJECTS
  0
DICTIONARY
  5
C
330
0
100
AcDbDictionary
281
     1
  3
ACAD_GROUP
350
D
  3
ACAD_LAYOUT
350
1A
  3
ACAD_MLINESTYLE
350
17
  3
ACAD_PLOTSETTINGS
350
19
  3
ACAD_PLOTSTYLENAME
350
E
  3
ACAD_SCALELIST
350
47
  3
DWGPROPS
350
132
  0
DICTIONARY
  5
D
102
{ACAD_REACTORS
330
C
102
}
330
C
100
AcDbDictionary
281
     1
  0
DICTIONARY
  5
1A
102
{ACAD_REACTORS
330
C
102
}
330
C
100
AcDbDictionary
281
     1
  3
Layout1
350
1E
  3
Layout2
350
26
  3
Model
350
22
  0
DICTIONARY
  5
17
102
{ACAD_REACTORS
330
C
102
}
330
C
100
AcDbDictionary
281
     1
  3
Standard
350
18
  0
DICTIONARY
  5
19
102
{ACAD_REACTORS
330
C
102
}
330
C
100
AcDbDictionary
281
     1
  0
ACDBDICTIONARYWDFLT
  5
E
102
{ACAD_REACTORS
330
C
102
}
330
C
100
AcDbDictionary
281
     1
  3
Normal
350
F
100
AcDbDictionaryWithDefault
340
F
  0
DICTIONARY
  5
47
102
{ACAD_REACTORS
330
C
102
}
330
C
100
AcDbDictionary
281
     1
  3
A0
350
48
  3
A1
350
49
  3
A2
350
4A
  3
A3
350
4B
  3
A4
350
4C
  3
A5
350
4D
  3
A6
350
4E
  3
A7
350
4F
  3
A8
350
50
  3
A9
350
51
  3
B0
350
52
  3
B1
350
53
  3
B2
350
54
  3
B3
350
55
  3
B4
350
56
  3
B5
350
57
  3
B6
350
58
  3
B7
350
59
  3
B8
350
5A
  3
B9
350
5B
  3
C0
350
5C
  3
C1
350
5D
  3
C2
350
5E
  3
C3
350
5F
  3
C4
350
60
  3
C5
350
61
  3
C6
350
62
  3
C7
350
63
  3
C8
350
64
  3
C9
350
65
  3
D0
350
66
  3
D1
350
67
  3
D2
350
68
  0
XRECORD
  5
132
102
{ACAD_REACTORS
330
C
102
}
330
C
100
AcDbXrecord
280
     1
  1
DWGPROPS COOKIE
  2

  3

  4

  6

  7

  8
b.kav
  9

300
=
301
=
302
=
303
=
304
=
305
=
306
=
307
=
308
=
309
=
 40
0.0
 41
2460396.24466522
 42
2460396.244665405
  1

 90
        0
  0
LAYOUT
  5
1E
102
{ACAD_REACTORS
330
1A
102
}
330
1A
100
AcDbPlotSettings
  1

  2
none_device
  4

  6

 40
0.0
 41
0.0
 42
0.0
 43
0.0
 44
0.0
 45
0.0
 46
0.0
 47
0.0
 48
0.0
 49
0.0
140
0.0
141
0.0
142
1.0
143
1.0
 70
   688
 72
     1
 73
     0
 74
     5
  7

 75
    16
147
1.0
148
0.0
149
0.0
100
AcDbLayout
  1
Layout1
 70
     1
 71
     1
 10
0.0
 20
0.0
 11
420.0
 21
297.0
 12
0.0
 22
0.0
 32
0.0
 14
1.0000000000E+20
 24
1.0000000000E+20
 34
1.0000000000E+20
 15
-1.0000000000E+20
 25
-1.0000000000E+20
 35
-1.0000000000E+20
146
0.0
 13
0.0
 23
0.0
 33
0.0
 16
1.0
 26
0.0
 36
0.0
 17
0.0
 27
1.0
 37
0.0
 76
     0
330
1B
  0
LAYOUT
  5
26
102
{ACAD_REACTORS
330
1A
102
}
330
1A
100
AcDbPlotSettings
  1

  2
none_device
  4

  6

 40
0.0
 41
0.0
 42
0.0
 43
0.0
 44
0.0
 45
0.0
 46
0.0
 47
0.0
 48
0.0
 49
0.0
140
0.0
141
0.0
142
1.0
143
1.0
 70
   688
 72
     1
 73
     0
 74
     5
  7

 75
    16
147
1.0
148
0.0
149
0.0
100
AcDbLayout
  1
Layout2
 70
     1
 71
     2
 10
0.0
 20
0.0
 11
0.0
 21
0.0
 12
0.0
 22
0.0
 32
0.0
 14
0.0
 24
0.0
 34
0.0
 15
0.0
 25
0.0
 35
0.0
146
0.0
 13
0.0
 23
0.0
 33
0.0
 16
1.0
 26
0.0
 36
0.0
 17
0.0
 27
1.0
 37
0.0
 76
     0
330
23
  0
LAYOUT
  5
22
102
{ACAD_REACTORS
330
1A
102
}
330
1A
100
AcDbPlotSettings
  1

  2
none_device
  4
Letter_(8.50_x_11.00_Inches)
  6

 40
6.35
 41
6.35
 42
6.35000508
 43
6.35000508
 44
215.9
 45
279.4
 46
0.0
 47
0.0
 48
0.0
 49
0.0
140
0.0
141
0.0
142
1.0
143
1.0
 70
  1712
 72
     1
 73
     0
 74
     0
  7

 75
     0
147
1.0
148
0.0
149
0.0
100
AcDbLayout
  1
Model
 70
     1
 71
     0
 10
0.0
 20
0.0
 11
279.4
 21
215.9
 12
0.0
 22
0.0
 32
0.0
 14
0.0
 24
0.0
 34
0.0
 15
279.4
 25
215.9
 35
0.0
146
0.0
 13
0.0
 23
0.0
 33
0.0
 16
1.0
 26
0.0
 36
0.0
 17
0.0
 27
1.0
 37
0.0
 76
     0
330
1F
331
29
  0
MLINESTYLE
  5
18
102
{ACAD_REACTORS
330
17
102
}
330
17
100
AcDbMlineStyle
  2
Standard
 70
     0
  3

 62
   256
 51
90.0
 52
90.0
 71
     2
 49
0.5
 62
   256
  6
BYLAYER
 49
-0.5
 62
   256
  6
BYLAYER
  0
ACDBPLACEHOLDER
  5
F
102
{ACAD_REACTORS
330
E
102
}
330
E
  0
SCALE
  5
48
102
{ACAD_REACTORS
330
47
102
}
330
47
100
AcDbScale
 70
     0
300
1:1
140
1.0
141
1.0
290
     1
  0
SCALE
  5
49
102
{ACAD_REACTORS
330
47
102
}
330
47
100
AcDbScale
 70
     0
300
1:2
140
1.0
141
2.0
290
     0
  0
SCALE
  5
4A
102
{ACAD_REACTORS
330
47
102
}
330
47
100
AcDbScale
 70
     0
300
1:4
140
1.0
141
4.0
290
     0
  0
SCALE
  5
4B
102
{ACAD_REACTORS
330
47
102
}
330
47
100
AcDbScale
 70
     0
300
1:5
140
1.0
141
5.0
290
     0
  0
SCALE
  5
4C
102
{ACAD_REACTORS
330
47
102
}
330
47
100
AcDbScale
 70
     0
300
1:8
140
1.0
141
8.0
290
     0
  0
SCALE
  5
4D
102
{ACAD_REACTORS
330
47
102
}
330
47
100
AcDbScale
 70
     0
300
1:10
140
1.0
141
10.0
290
     0
  0
SCALE
  5
4E
102
{ACAD_REACTORS
330
47
102
}
330
47
100
AcDbScale
 70
     0
300
1:16
140
1.0
141
16.0
290
     0
  0
SCALE
  5
4F
102
{ACAD_REACTORS
330
47
102
}
330
47
100
AcDbScale
 70
     0
300
1:20
140
1.0
141
20.0
290
     0
  0
SCALE
  5
50
102
{ACAD_REACTORS
330
47
102
}
330
47
100
AcDbScale
 70
     0
300
1:30
140
1.0
141
30.0
290
     0
  0
SCALE
  5
51
102
{ACAD_REACTORS
330
47
102
}
330
47
100
AcDbScale
 70
     0
300
1:40
140
1.0
141
40.0
290
     0
  0
SCALE
  5
52
102
{ACAD_REACTORS
330
47
102
}
330
47
100
AcDbScale
 70
     0
300
1:50
140
1.0
141
50.0
290
     0
  0
SCALE
  5
53
102
{ACAD_REACTORS
330
47
102
}
330
47
100
AcDbScale
 70
     0
300
1:100
140
1.0
141
100.0
290
     0
  0
SCALE
  5
54
102
{ACAD_REACTORS
330
47
102
}
330
47
100
AcDbScale
 70
     0
300
2:1
140
2.0
141
1.0
290
     0
  0
SCALE
  5
55
102
{ACAD_REACTORS
330
47
102
}
330
47
100
AcDbScale
 70
     0
300
4:1
140
4.0
141
1.0
290
     0
  0
SCALE
  5
56
102
{ACAD_REACTORS
330
47
102
}
330
47
100
AcDbScale
 70
     0
300
8:1
140
8.0
141
1.0
290
     0
  0
SCALE
  5
57
102
{ACAD_REACTORS
330
47
102
}
330
47
100
AcDbScale
 70
     0
300
10:1
140
10.0
141
1.0
290
     0
  0
SCALE
  5
58
102
{ACAD_REACTORS
330
47
102
}
330
47
100
AcDbScale
 70
     0
300
100:1
140
100.0
141
1.0
290
     0
  0
SCALE
  5
59
102
{ACAD_REACTORS
330
47
102
}
330
47
100
AcDbScale
 70
     0
300
1/128" = 1'-0"
140
0.0078125
141
12.0
290
     0
  0
SCALE
  5
5A
102
{ACAD_REACTORS
330
47
102
}
330
47
100
AcDbScale
 70
     0
300
1/64" = 1'-0"
140
0.015625
141
12.0
290
     0
  0
SCALE
  5
5B
102
{ACAD_REACTORS
330
47
102
}
330
47
100
AcDbScale
 70
     0
300
1/32" = 1'-0"
140
0.03125
141
12.0
290
     0
  0
SCALE
  5
5C
102
{ACAD_REACTORS
330
47
102
}
330
47
100
AcDbScale
 70
     0
300
1/16" = 1'-0"
140
0.0625
141
12.0
290
     0
  0
SCALE
  5
5D
102
{ACAD_REACTORS
330
47
102
}
330
47
100
AcDbScale
 70
     0
300
3/32" = 1'-0"
140
0.09375
141
12.0
290
     0
  0
SCALE
  5
5E
102
{ACAD_REACTORS
330
47
102
}
330
47
100
AcDbScale
 70
     0
300
1/8" = 1'-0"
140
0.125
141
12.0
290
     0
  0
SCALE
  5
5F
102
{ACAD_REACTORS
330
47
102
}
330
47
100
AcDbScale
 70
     0
300
3/16" = 1'-0"
140
0.1875
141
12.0
290
     0
  0
SCALE
  5
60
102
{ACAD_REACTORS
330
47
102
}
330
47
100
AcDbScale
 70
     0
300
1/4" = 1'-0"
140
0.25
141
12.0
290
     0
  0
SCALE
  5
61
102
{ACAD_REACTORS
330
47
102
}
330
47
100
AcDbScale
 70
     0
300
3/8" = 1'-0"
140
0.375
141
12.0
290
     0
  0
SCALE
  5
62
102
{ACAD_REACTORS
330
47
102
}
330
47
100
AcDbScale
 70
     0
300
1/2" = 1'-0"
140
0.5
141
12.0
290
     0
  0
SCALE
  5
63
102
{ACAD_REACTORS
330
47
102
}
330
47
100
AcDbScale
 70
     0
300
3/4" = 1'-0"
140
0.75
141
12.0
290
     0
  0
SCALE
  5
64
102
{ACAD_REACTORS
330
47
102
}
330
47
100
AcDbScale
 70
     0
300
1" = 1'-0"
140
1.0
141
12.0
290
     0
  0
SCALE
  5
65
102
{ACAD_REACTORS
330
47
102
}
330
47
100
AcDbScale
 70
     0
300
1-1/2" = 1'-0"
140
1.5
141
12.0
290
     0
  0
SCALE
  5
66
102
{ACAD_REACTORS
330
47
102
}
330
47
100
AcDbScale
 70
     0
300
3" = 1'-0"
140
3.0
141
12.0
290
     0
  0
SCALE
  5
67
102
{ACAD_REACTORS
330
47
102
}
330
47
100
AcDbScale
 70
     0
300
6" = 1'-0"
140
6.0
141
12.0
290
     0
  0
SCALE
  5
68
102
{ACAD_REACTORS
330
47
102
}
330
47
100
AcDbScale
 70
     0
300
1'-0" = 1'-0"
140
12.0
141
12.0
290
     0
  0
ENDSEC
  0
EOF
